Song name
# A B C D E F G H I J K L M N O P Q R S T U V W X Y Z

Eskimo Joe - Car Crash tab

Artist: Eskimo Joe
Song: Car Crash
Album: A Song Is A City

Standard Tuning


Intro/Verse x 2
E---4-----1-----4-----3-----|
B---4-----1-----4-----3-----|
G---5-----3-----6-----5-----|
D---6-----3-----6-----5-----|
A---6-----1-----4-----3-----|
E---4-----------------------|



Chorus  X 2
E---1-----4-----4-----3-----|
B---1-----4-----4-----3-----|
G---3-----6-----5-----5-----|
D---3-----6-----6-----5-----|
A---1-----4-----6-----3-----|
E---------------4-----------|

then
E---1----|
B---1----|
G---3----|
D---3----|
A---1----|
E--------|

back 2 verse x 2

chorus x2

then

E---1----3----1----|
B---1----3----1----|
G---3----5----3----|
D---3----5----3----|
A---1----3----1----|
E------------------|

Bridge x2
          

E---1-----1--1--1----1---1----4---|
B---1-----3--4--3----1---1----4---|
G---1-----3--3--3----1---1----6---|
D---3-----3--3--3----3---1----6---|
A---3-----1--1--1----3---3----4---|
E---1----------------1---1--------|

then

E--------|
B---5----|
G---5----|
D---5----|
A---3----|
E--------|

verse x2

then

E---1----1----1----1-----------|
B---1----1----1----1----6------|
G---1----3----1----1----6------|
D---3----3----3----1----6------|
A---3----1----3----3----4------|
E---1---------1----1-----------|


Tap to rate this tab
 
# A B C D E F G H I J K L M N O P Q R S T U V W X Y Z