Song name
# A B C D E F G H I J K L M N O P Q R S T U V W X Y Z

Eskimo Joe - Slow Down tab

Help us improve GuitareTab! Take a short survey!
Highlighted       Show chord diagrams
Eskimo Joe-Slow Down

Album-Girl

Verse
~~~~~
      D
E: |---2222-2222-----|
B: |---3333-3333-----|
G: |---2222-22222h4--| x 4
D: |--0----0---------|
A: |--0----0---------|
E: |-----------------|

Chorus
~~~~~~
      D    Gm
E: |--2----3--|
B: |--3----3--|
G: |--2----3--| x 2
D: |-------5--|
A: |-------5--|
E: |-------3--|

Verse
~~~~~
      D
E: |---2222-2222-----|
B: |---3333-3333-----|
G: |---2222-22222h4--| x 4
D: |--0----0---------|
A: |--0----0---------|
E: |-----------------|

Chorus
~~~~~~
      D    Gm
E: |--2----3--|
B: |--3----3--|
G: |--2----3--| x 2
D: |-------5--|
A: |-------5--|
E: |-------3--|

Outro
~~~~~
      D
E: |---2222-2222-----|
B: |---3333-3333-----|
G: |---2222-2222-----| x 8
D: |--0----0---------|
A: |--0----0---------|
E: |-----------------|

Related for Slow Down tab