Song name
# A B C D E F G H I J K L M N O P Q R S T U V W X Y Z

Eskimo Joe - Inshalla tab

INSHALLA by ESKIMO JOE from INSHALLA (2009)

MAIN RIFF
   GUITAR 1
E|--------------------------------------------------------------------|
B|--------------------------------------------------------------------|
G|--------------------------------------------------------------------|
D|-------6-4--6------------6-4--6-----------6-4--6---------6-4---6-4--|
A|----4---------4--7-7--0---------4--77------------4--7---------------|
E|----------------------------------------2--------------0------------|
 | GUITAR 2                                                           |
E|--------------------------------------------------------------------|
B|--------------------------------------------------------------------|
G|---6-------------------2--------------------------------------------|
D|---6-------------------2----------------4---------------2-----------|
A|---4-------------------0----------------4---------------2-----------|
E|----------------------------------------2---------------0-----------|


VERSE

   GUITAR 1
E|--------------------------------------------------------------------|
B|--------------------------------------------------------------------|
G|--------------------------------------------------4--4---6----------|
D|--------------------------------------------------4--4---6----------|
A|--------------------------------------------------2--2---4----------|
E|--------------------------------------------------------------------|
 | GUITAR 2                                                           |
E|--------------------------------------------------------------------|
B|--------------------------------------------------------------------|
G|--6--------------------------2--------------------6-----------------|
D|--6--------------------------2--------------------6-----------------|
A|--4--------------------------0--------------------4-----------------|
E|--------------------------------------------------------------------|
I'm back, in 3rd world.... 


   GUITAR 1
E|--------------------------------------------------------------------|
B|--------------------------------------------------------------------|
G|---4-4--6------4-4---6----------------------------------------------|
D|---4-4--6------4-4---6----------------------------------------------|
A|---2-2--4------2-2---4----------------------------------------------|
E|--------------------------------------------------------------------|
 | GUITAR 2                                                           | 
E|--------------------------------------------------------------------|
B|--------------------------------------------------------------------|
G|---------6----------------------------------------------------------|
D|---------6------------6--------------4------------------------------|
A|---------4------------6--------------4------------------------------|
E|----------------------4--------------2------------------------------|

CHORUS

INSHALLA.......
   GUITAR 1
E|--------------------------------------------------------------------|
B|--------------------------------------------------------------------|
G|---------------------------------------------------------4--6-------|
D|-------6-4--6------------6-4--6-----------6-4--6---------4--6-------|
A|----4---------4--7-7--0---------4--77------------4--7----2--4-------|
E|----------------------------------------2---------------------------|
 | GUITAR 2                                                           |
E|--------------------------------------------------------------------|
B|--------------------------------------------------------------------|
G|---6-------------------2---------------------------------4--6-------|
D|---6-------------------2----------------4----------------4--6-------|
A|---4-------------------0----------------4----------------2--4-------|
E|----------------------------------------2---------------------------|


AND IM STANDIN....                            IM DIRTY AS A.....
  GUITAR 1
E|------------------------------------|      |--------------------------|
B|------------------------------------|      |--------------------------|
G|----------------------------4-4--6--|      |--------------------------|
D|----------------------------4-4--6--|      |--------------------------|
A|--4-4--7-4---4-7-4---4-7-4--2-2--4--|      |--------------------------|
E|------------------------------------|      |--------------------------|
 | GUITAR 2                           |  X2  |                          |
E|------------------------------------|      |--------------------------|
B|------------------------------------|      |--------------------------|
G|--6-------------------------4-4--6--|      |-2---------------6-6-6-6-6|
D|--6-------------------------4-4--6--|      |-2---------------6-6-6-6-6|
A|--4-------------------------2-2--4--|      |-0---------------4-4-6-6-6|
E|------------------------------------|      |--------------------------|

THERE'S A THOUSAND DIFFERENT WAYS....
GUITAR 1
E|---4-------4--------4--------4-------4-------4--------|
B|-----7-4-7---7-4-7----7-4-7----7-4-7---7-4-7---7-4-7--|
G|------------------------------------------------------|
D|------------------------------------------------------|
A|------------------------------------------------------|
E|------------------------------------------------------|
 | GUITAR 2                                             |
E|------------------------------------------------------|
B|------------------------------------------------------|
G|---6----------------2---------------------------------|
D|---6----------------2----------------4----------------|
A|---4----------------0----------------4----------------|
E|-------------------------------------2----------------|

then... 

INSHALLA.......
   GUITAR 1
E|--------------------------------------------------------------------|
B|--------------------------------------------------------------------|
G|---------------------------------------------------------4--6-------|
D|-------6-4--6------------6-4--6-----------6-4--6---------4--6-------|
A|----4---------4--7-7--0---------4--77------------4--7----2--4-------|
E|----------------------------------------2---------------------------|
 | GUITAR 2                                                           |
E|--------------------------------------------------------------------|
B|--------------------------------------------------------------------|
G|---6-------------------2---------------------------------4--6-------|
D|---6-------------------2----------------4----------------4--6-------|
A|---4-------------------0----------------4----------------2--4-------|
E|----------------------------------------2---------------------------|

SOLO   
   GUITAR 1
E|----------------------------------------4-6-4-11-11-11-11-12-11-9-4-----|
B|----5---4-2-4-5-4-2-------------------2---------------------------------|
G|------------------------2---0---0-2-----------------------------------6-|
D|---------------------1--------1---------------------------------------6-|
A|----------------------------------------------------------------------4-|
E|------------------------------------------------------------------------|

please rate comment and leave suggestions :)




Tap to rate this tab
# A B C D E F G H I J K L M N O P Q R S T U V W X Y Z