Song name
# A B C D E F G H I J K L M N O P Q R S T U V W X Y Z

Eskimo Joe - Sarah tab

Sarah  Eskimo Joe
Tabbed by FOBBer

Tuning: Standard.

Guitar 1
e  |  -------------------------------------------------------------------------|
B  |  -------------------------------------------------------------------------|
G  |  -------------------------------------------------------------------------|
D  |  -2---------6----------9----------11--------13--------/--11-----6---------|
A  |  -2x8---6x8----9---x8----11--x2---13x2-/---11----6x8------------------| |  Repeat
E  |  -0---------4----------7-----------9----------11------/---9------4--------|
             (All Palm Muted)

Guitar 1
Sarah.
------------------------------------|
------------------------------------|
-9-9-9-9-9-9-9-9--------------------|
-9-9-9-9-9-9-9-9--------------------|
-7-7-7-7-7-7-7-7--------------------|
------------------------------------|

Guitar 2
------------------------------------|
------------------------------------|
------------------------------------|
-2-2-2-2-2-2-2-2--------------------|
-2-2-2-2-2-2-2-2--------------------|
-0-0-0-0-0-0-0-0--------------------|

VERSE

Guitar 1
  ------------------------------------------------------------------------|
  ------------------------------------------------------------------------|
  ------------------------------------------------------------------------|
  ----------6----------9----------11--------13--------/--11-----6---------|
  -------6x8----9---x8----11--x2---13x2-/---11----6x8-----------------| |  Repeat
  ----------4----------7-----------9----------11------/---9------4--------|
             (All Palm Muted)
Then

by the flowers
 --------------------------|
 --------------------------|
 --------------------------|
 -1------------------------|
 -1----x8------------------|
 -0------------------------|


Guitar 1
------------------------------------|
------------------------------------|
-9-9-9-9-9-9-9-9--------------------|
-9-9-9-9-9-9-9-9--------------------|
-7-7-7-7-7-7-7-7--------------------|
------------------------------------|

Guitar 2
------------------------------------|
------------------------------------|
------------------------------------|
-2-2-2-2-2-2-2-2--------------------|
-2-2-2-2-2-2-2-2--------------------|
-0-0-0-0-0-0-0-0--------------------|

Guitar 1: Verse x2

----------------------CHORUS START--------------------------------------
Guitars 1 + 2

-------------------------------------|
-------------------------------------|
-------4-4---------6-6-6-6-----------|
-2-2---4-4---4-4---6-6-6-6-----------|
-2-2---2-2---4-4---4-4-4-4-----------|
-0-0---------2-2---------------------|


-------------------------------------------------------------------------|
-------------------------------------------------------------------------|
-4-4-4-4-4-4-4-4---------------------6-6-6-6--4-4-4-4--------------------| Repeat
-4-4-4-4-4-4-4-4---4-4-4-4-4-4-4-4---6-6-6-6--4-4-4-4--4-4-4-4-4-4-4-4---|
-2-2-2-2-2-2-2-2---4-4-4-4-4-4-4-4---4-4-4-4--2-2-2-2--4-4-4-4-4-4-4-4---|
-------------------2-2-2-2-2-2-2-2---------------------2-2-2-2-2-2-2-2---|

Guitar 1

---------------------------------------------------------------|
-9---9---9---9---------9---9---9---9---------------------------|
---9---9---9---9-8-1-----9---9---9---9-8-1---0-0-0-0-0-0-0-0---|
---------------------------------------------------------------|
---------------------------------------------------------------|
---------------------------------------------------------------|

Guitar 2

----------------------------------------------------------------------------------------|
----------------------------------------------------------------------------------------|
----------------------------------------------------------------------------------------|
-2-2-2-2-6-6-6-6-2-2-2-2-6-6-6-6-2-2-2-2--66-4-4-2-2-2-2---1-1-1-1-1-1-1-1--------------|
-2-2-2-2-6-6-6-6-2-2-2-2-6-6-6-6-2-2-2-2--66-4-4-2-2-2-2---1-1-1-1-1-1-1-1--------------|
-0-0-0-0-4-4-4-4-0-0-0-0-4-4-4-4-0-0-0-0--44-2-2-0-0-0-0---0-0-0-0-0-0-0-0--------------|
-----------------CHORUS END-------------------------------------------------------------|


Guitar 2

---------------------------------|
-9---9---9---9-------------------|
---9---9---9---9-8-1-------------|
---------------------------------|
---------------------------------|
---------------------------------|

Guitar 1
e  |  -------------------------------------------------------------------------|
B  |  -------------------------------------------------------------------------|
G  |  -------------------------------------------------------------------------|
D  |  -2---------6----------9----------11--------13--------/--11-----6---------|
A  |  -2x8---6x8----9---x8----11--x2---13x2-/---11----6x8------------------| |  Repeat
E  |  -0---------4----------7-----------9----------11------/---9------4--------|
             (All Palm Muted)


Guitar 1
sarah
------------------------------------|
------------------------------------|
-9-9-9-9-9-9-9-9--------------------|
-9-9-9-9-9-9-9-9--------------------|
-7-7-7-7-7-7-7-7--------------------|
------------------------------------|

Guitar 2
------------------------------------|
------------------------------------|
------------------------------------|
-2-2-2-2-2-2-2-2--------------------|
-2-2-2-2-2-2-2-2--------------------|
-0-0-0-0-0-0-0-0--------------------|

Guitar 1: Verse x2

Guitar 1
-------------------------------|
-9---9---9---9-----------------|
---9---9---9---9-8-1-----------|
-------------------------------|
-------------------------------|
-------------------------------|

Guitar 2
------------------------------------|
------------------------------------|
------------------------------------|
-2-2-2-2-2-2-2-2--------------------|
-2-2-2-2-2-2-2-2--------------------|
-0-0-0-0-0-0-0-0--------------------|


----------------------CHORUS START--------------------------------------
Guitars 1 + 2

-------------------------------------|
-------------------------------------|
-------4-4---------6-6-6-6-----------|
-2-2---4-4---4-4---6-6-6-6-----------|
-2-2---2-2---4-4---4-4-4-4-----------|
-0-0---------2-2---------------------|


-------------------------------------------------------------------------|
-------------------------------------------------------------------------|
-4-4-4-4-4-4-4-4---------------------6-6-6-6--4-4-4-4--------------------|
-4-4-4-4-4-4-4-4---4-4-4-4-4-4-4-4---6-6-6-6--4-4-4-4--4-4-4-4-4-4-4-4---|
-2-2-2-2-2-2-2-2---4-4-4-4-4-4-4-4---4-4-4-4--2-2-2-2--4-4-4-4-4-4-4-4---|   Repeat
-------------------2-2-2-2-2-2-2-2---------------------2-2-2-2-2-2-2-2---|

Guitar 1

---------------------------------------------------------------|
-9---9---9---9---------9---9---9---9---------------------------|
---9---9---9---9-8-1-----9---9---9---9-8-1---0-0-0-0-0-0-0-0---|
---------------------------------------------------------------|
---------------------------------------------------------------|
---------------------------------------------------------------|

Guitar 2

----------------------------------------------------------------------------------------|
----------------------------------------------------------------------------------------|
----------------------------------------------------------------------------------------|
-2-2-2-2-6-6-6-6-2-2-2-2-6-6-6-6-2-2-2-2--66-4-4-2-2-2-2---1-1-1-1-1-1-1-1--------------|
-2-2-2-2-6-6-6-6-2-2-2-2-6-6-6-6-2-2-2-2--66-4-4-2-2-2-2---1-1-1-1-1-1-1-1--------------|
-0-0-0-0-4-4-4-4-0-0-0-0-4-4-4-4-0-0-0-0--44-2-2-0-0-0-0---0-0-0-0-0-0-0-0--------------|

-----------------CHORUS END----------------------------------------------

Guitar 2
Let the notes ring out.
-------------------------------------------------------
-9~ ---12~ ----11~ ---14~---12~ ---16~ ---14~ ---17~---
-------------------------------------------------------|
-------------------------------------------------------|
-------------------------------------------------------|
-------------------------------------------------------|

Guitar 1 -
--------------------------------------------------|
--------------------------------------------------|
--------------------------------------------------|
--6------------2----------9-----------11----------|
--6x16----2x6----9x16----11x16----------------| Play twice, on second time only
--4------------0----------7------------9----------| play the first 2 chords 16 times.
Then........
------------------------------------------------------------------------|
------------------------------------------------------------------------|
------------------------------------------------------------------------|
--9-----------4----------11----------9-----------4----------------------|
--9--x8------4--x8-----11x4----9x4-----4x8---------------------------|      Repeat
--7-----------2-----------9-----------7-----------2---------------------|
	(All Palm Muted)

Guitar 1

------------------------------------------------------------------|
-9---9---9---9---------9---9---9---9------------------------------|
---9---9---9---9-8-1-----9---9---9---9-8-1---0-0-0-0-0-0-0-0-0----|
------------------------------------------------------------------|
------------------------------------------------------------------|
------------------------------------------------------------------|

Guitar 2

----------------------------------------------------------------------------------------|
----------------------------------------------------------------------------------------|
----------------------------------------------------------------------------------------|
-2-2-2-2-6-6-6-6-2-2-2-2-6-6-6-6-2-2-2-2--66-4-4-2-2-2-2---1-1-1-1-1-1-1-1--------------|
-2-2-2-2-6-6-6-6-2-2-2-2-6-6-6-6-2-2-2-2--66-4-4-2-2-2-2---1-1-1-1-1-1-1-1--------------|
-0-0-0-0-4-4-4-4-0-0-0-0-4-4-4-4-0-0-0-0--44-2-2-0-0-0-0---0-0-0-0-0-0-0-0--------------|
-----------------CHORUS END-------------------------------------------------------------|

-----------------SOLO-------------------------------------
Guitar 1
---------------------------------------------------------------------|
---------------------------------------------------------------------|
---------------------------------------------------------------------|
--9-------------8----------------------------------------------------|
--9x8-------8----x8-------------------|   Repeat until end of solo--|
--7-------------6----------------------------------------------------|

Guitar 2
----------------------------------|
-------12----12----------14----14-|
----13----13----13-15-13----13----|
-14-------------------------------|
----------------------------------|
----------------------------------|

--------------------------------------|
-------12----12----------14--16-14-12-|
----13----13----13-15-13--------------|
-14-----------------------------------|
--------------------------------------|
--------------------------------------|

----------------------------------|
-------12----12----------14----14-|
----13----13----13-15-13----13----|
-14-------------------------------|
----------------------------------|
----------------------------------|

--------------------------------------|
-------12----12----------14--16-14-12-|
----13----13----13-15-13--------------|
-14-----------------------------------|
--------------------------------------|
--------------------------------------|


Play last repeat slowly with reverb in the background.
----------------------------------|
-------12----12----------14----14-|
----13----13----13-15-13----13----|
-14-------------------------------|
----------------------------------|
----------------------------------|
Tap to rate this tab
# A B C D E F G H I J K L M N O P Q R S T U V W X Y Z