Song name
# A B C D E F G H I J K L M N O P Q R S T U V W X Y Z

Eskimo Joe - Ruby Wednesday tab

Help us improve GuitareTab! Take a short survey!
T1: Mark Norris, mnorris11@hotmail.com, Eskimo Joe, Ruby Wednesday,
?/?/99

S1: Band: Eskimo Joe
Song: Ruby Wednesday
Album: Don't know the exact name, but it's the latest EP, after
"Sweater"
Tabbed By: Mark Norris (mnorris11@hotmail.com)

Verse - Use these two chords, it's easy to figure out the strumming
|-------|
|-------|
|-------|
|-5---9-|
|-5---9-|
|-3---7-|


Chorus - Use this chord progression, strumming not shown
|----------------------
|----------------------
|-9------------5-------
|-9--9--10--5--5--5--9-
|-7--9--10--5--3--5--9-
|----7---8--3-----3--7-


Interlude - Use this progression, strumming not shown
|------------------------------------------------------------------
|------------------------------------------------------------------
|------------------------------------------------------------------
|-9--8--7--6-----------------------------------------------------------
|-7--6--5--4--5--9----------------------------------------------------------
|-------------3--7---------------------------------------------------


Little Solo thing in Interlude (With Chorus playing over the top of it)

|-12----12---11----11---10----10---9------10b--10b--10b--10-11-|
|----12---------12---------10--------9----12b--12b--12b--------|
|--------------------------------------------------------------|
|--------------------------------------------------------------|
|--------------------------------------------------------------|
|--------------------------------------------------------------|
Related for Ruby Wednesday tab