Song name
# A B C D E F G H I J K L M N O P Q R S T U V W X Y Z

Eskimo Joe - London Bombs tab

London Bombs - Eskimo Joe
Tabbed by: Travis Overington

Tuning: Standard

e|------------------------------------------------------|
B|------------------------------------------------------|
G|------------------------------------------------------|
D|-----7-8-7-8-10-8-7-8~-7-8-7-10-8-7-8-----------------|
A|------------------------------------------------------|
E|------------------------------------------------------|

Chorus
e|------------------------------------------------------| x2
B|--12-10-----------------------------------------------|
G|--------12----10----10-12-14----12--15-14--12--10-----|
D|------------------------------------------------------|
A|------------------------------------------------------|
E|------------------------------------------------------|


e|------------------------------------------------------|
B|------------------------------------------------------|
G|--12-----10------------15-14--12--10--12~-------------|
D|-------------12--10-----------------------------------|
A|------------------------------------------------------|
E|------------------------------------------------------|
Tap to rate this tab
# A B C D E F G H I J K L M N O P Q R S T U V W X Y Z