Song name
# A B C D E F G H I J K L M N O P Q R S T U V W X Y Z

Eskimo Joe - Your Eyes tab

Your Eyes - Eskimo Joe
Tabbed by: Travis Overington

Tuning: Standard
Capo 4th Fret

So this sounds right to me, except for the bridge which I think is a bit off but it 
still sounds alright.

Intro and Verse
e|-8---6---5---3---5---3---1---3-------------------------|
B|---0---0---0---0---0---0---0---0-----------------------|
G|-------------------------------------------------------|
D|-------------------------------------------------------|
A|-------------------------------------------------------|
E|-------------------------------------------------------|

e|-----5-----5-----4-----4-------------------------------|
B|-2p0---2p0---2p0---2p0---------------------------------|
G|-------------------------------------------------------|
D|-------------------------------------------------------|
A|-------------------------------------------------------|
E|-------------------------------------------------------|

Slight variation through song before chorus
e|-----5-----5-----7-----7-------------------------------|
B|-2p0---2p0---2p0---2p0---------------------------------|
G|-------------------------------------------------------|
D|-------------------------------------------------------|
A|-------------------------------------------------------|
E|-------------------------------------------------------|

Bridge
e|---------0---0---2---2---4---5-------------------------|
B|-2p0-2p0---0---0---0---0---0---0-----------------------|
G|-------------------------------------------------------|
D|-------------------------------------------------------|
A|-------------------------------------------------------|
E|-------------------------------------------------------|

Solo
e|-------------------------------------------------------|
B|--3-3-3-3-3-3-3-0-5-5-5-5-9-9-10-10--------------------|
G|-------------------------------------------------------|
D|-------------------------------------------------------|
A|-------------------------------------------------------|
E|-------------------------------------------------------|

Song ends on
e|-----5-----7-----9-------------------------------------|
B|-2p0---2p0---2p0---2~----------------------------------|
G|-------------------------------------------------------|
D|-------------------------------------------------------|
A|-------------------------------------------------------|
E|-------------------------------------------------------|
Tap to rate this tab
 
# A B C D E F G H I J K L M N O P Q R S T U V W X Y Z