Song name
# A B C D E F G H I J K L M N O P Q R S T U V W X Y Z

Eskimo Joe - From The Sea tab

Capo on 1st fret (all notes relative to capo)
P.M = Palm Mute


INTRO:
   P.M..................
E-|--------------------------|-
B-|--------------------------|-
G-|--------------------------|-
D-|-3-3-3-3-3-3-3-3-3-3------|-
A-|-3-3-3-3-3-3-3-3-3-3--etc-|-
E-|-1-1-1-1-1-1-1-1-1-1------|-
   
    F
E-|-----------------|-----------------|-
B-|-----1---0-------|-----1---0-------|-
G-|---2---2---2---2-|---2---2---2---2-|-
D-|-3-----------3---|-3-----------3---|-
A-|-----------------|-----------------|-
E-|-----------------|-----------------|-

    Am
E-|-----0-----------|-----0-----------|-
B-|---------3-------|---------3-------|-
G-|---2---2---2---2-|---2---2---2---2-|-
D-|-----------------|-----------------|-
A-|-0-----------0---|-0-----------0---|-
E-|-----------------|-----------------|-

F                  Am
Oooh I'm so spaced out today, 
F                Am
Oooh I could have slept for days, 
F                         Am      G           D      F
It's like a radar and it comes to you from the sea
     Am      G
From the sea
     D       F
From the sea


F                 Am
Ooh she's just so under pain
F                 Am
Ooh I'm so spaced out today
F                         Am        G         D          F
My head's a lead weight and it comes to you from the sea
     Am      G
From the sea
     D       F
From the sea


Am       C         F       
Hello, hello, oh hello
           C
(The world repeats itself some how)
Am         C              F
She knows, she knows, oh she knows
           C
(The world repeats itself some how)
D                      F
Only just beginning to know
D                          F
She's only just beginning to know


Ooh there's just no oxygen
Ooh why can't we just fall in in the sea


Hello, hello, oh hello
(The world repeats itself some how)
She knows, she knows, oh she knows
(The world repeats itself some how)
Oh, oh, oh, oh
Oh, oh, oh, oh
Hello, hello, oh hello
(The world repeats itself some how)
She knows, she knows, oh she knows
(The world repeats itself some how)
Only just beginning to know
She's only just beginning to know
She's only just beginning to know now
Tap to rate this tab
# A B C D E F G H I J K L M N O P Q R S T U V W X Y Z