Song name
# A B C D E F G H I J K L M N O P Q R S T U V W X Y Z

Eskimo Joe - Sweater tab

Song: Sweater
Artist: Eskimo Joe
Tabbed by: Antman(antman66@hotmail.com)
Chorus:

e|--------------------------------------------------------------------|
B|--------------------------------------------------------------------|
G|----9-9-9-9---------7-7-7-7---------9-9-9-9---------7-7-7-7---------|
D|----9-9-9-9-9-9-9-9-7-7-7-7-7-7-7-7-9-9-9-9-9-9-9-9-7-7-7-7-7-7-7-7-|
A|----7-7-7-7-9-9-9-9-5-5-5-5-7-7-7-7-7-7-7-7-9-9-9-9-5-5-5-5-7-7-7-7-|
E|----7-7-7-7-7-7-7-7-5-5-5-5-5-5-5-5-7-7-7-7-7-7-7-7-9-9-9-9-9-9-9-9-|

During the verse:

e|-----------------------------|
B|-----------------------------|
G|-----------------------------|
D|-----6-----6-----6------6-6^-|
A|-7-7---7-7---7-7---7-7-------|
E|-----------------------------|

Solo:

e|-----------------------------------|
G|-----------------------------------|
B|-----------------------------------|
D|-----------------------------------|
A|-7-7---7-7---7-7-7-----------------|
E|-------------------11-9-7-10-9-7-5-|

any comments/correction to antman66@hotmail.com
Tap to rate this tab
# A B C D E F G H I J K L M N O P Q R S T U V W X Y Z