Guitaretab - guitar tabs
Song name
# A B C D E F G H I J K L M N O P Q R S T U V W X Y Z

Eskimo Joe - Comfort You tab

Nice, easy song from an awesome band. Enjoy :)

Main piano Riff

e------------------------------------------------------------------------------------|
B------------------------------------------------------------------------------------|
G--------16---15---------------16---15-------------11---13-------------11---13-------|
D---13--------------13----13-------------13---13-------------11---13-------------9---|
A------------------------------------------------------------------------------------|
E------------------------------------------------------------------------------------|
[ Tab from: http://www.guitaretab.com/e/eskimo-joe/76758.html ]
During I will come, come to comfort you... piano plays:
e------------------------------------------|
B------------------------------------------|
G------------------------------------------|
D---13---11---------13---14---13---9-------|
A---------------11--------------------11---|
E------------------------------------------|

Distorted guitar:

e-------------------------------------------------|
B-------------------------------------------------|
G-------------------------------------------------|
D-------------------------------------------------|
A----6-----------9------------4---------2---------|
E----4 -(x16)----7-(x16)------2-(x16)---0-(x16)---|

Easy!
Related for Comfort You tab