Song name
# A B C D E F G H I J K L M N O P Q R S T U V W X Y Z

Eskimo Joe - Older Than You tab

Highlighted       Show chord diagrams
TUNING
======

Guitars are tuned down a semitone (one step)
All chords labelled as if in standard tuning


CHORDS
======


     E  C#m  B  B  G#m  G#7  
 F#m

d#|--0---4---2--7---4---4---5---2--|
A#|--0---5---4--7---4---4---5---2--|
F#|--1---6---4--8---4---5---6---2--|
C#|--2---6---4--9---6---4---7---4--|
G#|--2---4---2--9---6---6---7---4--|
D#|--0----------7---4---4---5---2--|

/1. There's two ways to play the B chord, take your pick


===============================================================


INTRO
=====

     E                   C#m       B

d#|--0-0-0-0-|-0-0-0-0-|-0-0-0-0-|-0-0-0-0-|
A#|--5-5-5-4-|-4-5-5-7-|-7-5-5-7-|-7-9-9-7-|
F#|----------|---------|---------|---------|  (x2)
C#|----------|---------|---------|---------|
G#|----------|---------|---------|---------|
D#|----------|---------|---------|---------|


VERSE ONE
=========

E     C#m        G#m          B
  Ooh inner city street where I sleep
E   C#m                   G#m             B
  I watched you take this romance home to me, oh


CHORUS
======

A            B
I believe in something more
  E                        G#7
I watched her heart through bedroom doors
     A
It's true
B             A
Eyes that are older than you


LINK
====

Play INTRO


VERSE TWO
=========

Ooh echoes in the heart when we meet
I chose to take this moment to tell you I'm leaving, oh


CHORUS
======

A            B
I believe in something more
  E                        G#7
I watched her heart through bedroom doors
     A
It's true
B             A          F#m
Eyes that are older than you


BRIDGE
======

F#m         B
    Ooo-ooo ooo
                   F#m
They're older than you
        B
Ooo-ooo ooo
                   F#m
They're older than you
              G#m                A
I watched you count it up on one hand
     B                    F#m
Like lovers and ocean and land
    G#m
And you keep on going
A                 B
Over and over and over again


LINK
====

E    C#m         G#m  B
  Do do do do do do
E    C#m         G#m  B
  Do do do do do do     oh


CHORUS
======

A            B
I believe in something more
  E                        G#7
I watched her heart through bedroom doors, oh
A            B
I believe in something more
  E                        G#7
I watched her heart through bedroom doors
     A
It's true
B             B          E
Eyes that are older than you


OUTRO
=====
     E                   C#m       B

d#|--0-0-0-0-|-0-0-0-0-|-0-0-0-0-|-0-0-0-0-|
A#|--5-5-5-4-|-4-5-5-7-|-7-5-5-7-|-7-9-9-7-|
F#|----------|---------|---------|---------|
C#|----------|---------|---------|---------|
G#|----------|---------|---------|---------|
D#|----------|---------|---------|---------|

then:

     E                   C#m       B         E

d#|--0-0-0-0-|-0-0-0-0-|-0-0-0-0-|-0-0-0-0-|-0-------|
A#|--5-5-5-4-|-4-5-5-7-|-7-5-5-7-|-7-9-9-7-|-9~------|
F#|----------|---------|---------|---------|---------|
C#|----------|---------|---------|---------|---------|
G#|----------|---------|---------|---------|---------|
D#|----------|---------|---------|---------|---------|

=====================================================================

This is one of the best songs from eskimo joe. if anything is wrong just email me at Kaydeo_11@hotmail.com

Cheers:)
Tap to rate this tab
 
# A B C D E F G H I J K L M N O P Q R S T U V W X Y Z