Song name
# A B C D E F G H I J K L M N O P Q R S T U V W X Y Z

Eskimo Joe - London Bombs tab

Highlighted       Show chord diagrams
I got the chords from MegaChords.com so credit for the chords to whoever posted them up there

Introduction (piano part)

E|-----------------------------------------------------------------------------|
B|-----------------------------------------------------------------------------|
G|---------5------------------5--------------------5-------------------5-------|
D|-7-8-7-8---8-7-8------8-7-8---8-7-8------7-8-7-8---8-7-8-----7-8-7-8---8-7-8-|
A|-6---------------------------------------8-------------------8---------------|
E|--------------------6--------------------------------------------------------|

E|--------------------------------------------------------------------------|
B|--------------------------------------------------------------------------|
G|---------5------------------5--------------------5------------------------|
D|-7-8-7-8---8-7-8------8-7-8---8-7-8------7-8-7-8---8-7-8-----7--8-8-7-8-7-|
A|-6---------------------------------------8-------------------8------------|
E|--------------------6-----------------------------------------------------|

Chords throughout whole song
D# - Bb - F - F

D#             Bb
Drag me by the ankles 
F
To the bottom of the ocean
D#                Bb
There I'll stay forever 
F
Until you come back from England 

                 D# - Bb - F x2 (With piano part)
The London Bombs 

D#            Bb
I stayed up forever 
F
Tried to call your number
D#                  Bb 
But you were lost forever
F 
In the early days of winter 

                 D# - Bb - F (with piano part)
The London Bombs 

             D#          Bb        F                 D# - Bb - F x2 (with piano part)
Dirty little town on the Thames is calling you away 

D#           Bb
I stay up forever 
F
Try to find the answer
       D#    Bb        F
In the sun I wait for you 

                 D# - Bb - F  (with piano part)
The London Bombs 

             D#          Bb        F
Dirty little town on the Thames is calling you away 
                 D# - Bb - F   (until the end)
The London Bombs 
Tap to rate this tab
# A B C D E F G H I J K L M N O P Q R S T U V W X Y Z