Song name
# A B C D E F G H I J K L M N O P Q R S T U V W X Y Z

Eskorbuto - Eskizofrenia tab

ESKORBUTO - ESSKIZOFRENIA

e:-------------------------------------------------------------------------|
B:-------------------------------------------------------------------------|
G:-----3-3-----------------3-3--------------3-3----------------3-3---------|
D:---------------3-3---------------3-3---------------3-3---------------3-3-|
A:-1-1------1-1-------1-1------1-1------1-1------1-1------1-1------1-1-----|
E:-------------------------------------------------------------------------|


Palm mute the riff. This section is repeated throughout the rest of the song:
e:--------------------------------------------------------------------------|
B:--------------------------------------------------------------------------|
G:--------------------------------------------------------------------------|
D:-3--3-3--3-3-3--8--8-8--8-8-8-----------------6--6-6--6-6-6---------------|
A:-1--1-1--1-1-1--6--6-6--6-6-6--6--6-6--6-6-6--4--4-4--4-4-4---------------|
E:-------------------------------4--4-4--4-4-4------------------------------|

e:-----------------------------------|
B:-----------------------------------|
G:-----------------------------------|
D:----------------4-4-4-4-4-4--------|
A:-4--4-4--4-4-4--2-2-2-2-2-2--------|
E:-2--2-2--2-2-2---------------------|



e:-----------------------------------|
B:-----------------------------------|
G:-----3-3---------------3-3---------|
D:-3-3-----3-3--3-3--3-3-----3-3-3-3-|
A:-1-1-----1-1-------1-1-----1-1-----|
E:-----------------------------------|

e:--------------------------------------------------------------------------|
B:--------------------------------------------------------------------------|
G:--------------------------------------------------------------------------|
D:-3--3-3--3-3-3--8--8-8--8-8-8-----------------6--6-6--6-6-6---------------|
A:-1--1-1--1-1-1--6--6-6--6-6-6--6--6-6--6-6-6--4--4-4--4-4-4---------------|
E:-------------------------------4--4-4--4-4-4------------------------------|

e:-----------------------------------|
B:-----------------------------------|
G:-----------------------------------|
D:----------------4-4-4-4-4-4--------|
A:-4--4-4--4-4-4--2-2-2-2-2-2--------|
E:-2--2-2--2-2-2---------------------|



e:-----------------------------------|
B:-----------------------------------|
G:-----3-3---------------3-3---------|
D:-3-3-----3-3--3-3--3-3-----3-3-3-3-|
A:-1-1-----1-1-------1-1-----1-1-----|
E:-----------------------------------|


e:-----------------------------------|
B:-----------------------------------|
G:-----3-3----3----------------------|
D:------------3----------------------|
A:-1-1-----1--1----------------------|
E:-----------------------------------|
Tap to rate this tab
 
# A B C D E F G H I J K L M N O P Q R S T U V W X Y Z