Song name
# A B C D E F G H I J K L M N O P Q R S T U V W X Y Z

Eskorbuto - Antes En Las Guerras tab

e:-------------------------------------------|
B:-3-3-3-3-----------------------------------|
G:-2-2-2-2--3-3-3-3-3--5-5-5-5-5-------------|
D:-0-0-0-0--3-3-3-3-3--5-5-5-5-5--3-3-3-3-3--|
A:----------1-1-1-1-1--3-3-3-3-3--3-3-3-3-3--|
E:--------------------------------1-1-1-1-1--|

e:-------0-4b-4-4-4--------0-4b-4-4-4-------0-4b-4-4-4--------0-5b-5-5-5b--|
B:---0-2---------------0-2--------------0-2---------------0-2--------------|
G:-2-----------------2----------------2-----------------2------------------|
D:-------------------------------------------------------------------------|
A:-------------------------------------------------------------------------|
E:-------------------------------------------------------------------------|


e:-------------------------------------------|
B:-3-3-3-3-----------------------------------|
G:-2-2-2-2--3-3-3-3-3--5-5-5-5-5-------------|
D:-0-0-0-0--3-3-3-3-3--5-5-5-5-5--3-3-3-3-3--|
A:----------1-1-1-1-1--3-3-3-3-3--3-3-3-3-3--|
E:--------------------------------1-1-1-1-1--|

e:--4b-4b-4b-4b-4b-4b-4b-4b-4b-4b-4b-4b-4b-4b-4b-4b-4b-|
B:-----------------------------------------------------|
G:-----------------------------------------------------|
D:-----------------------------------------------------|
A:-----------------------------------------------------|
E:-----------------------------------------------------|

e:-------------------------------------------|
B:-3-3-3-3-----------------------------------|
G:-2-2-2-2--3-3-3-3-3--5-5-5-5-5-------------|
D:-0-0-0-0--3-3-3-3-3--5-5-5-5-5--3-3-3-3-3--|
A:----------1-1-1-1-1--3-3-3-3-3--3-3-3-3-3--|
E:--------------------------------1-1-1-1-1--|
Tap to rate this tab
# A B C D E F G H I J K L M N O P Q R S T U V W X Y Z