Song name
# A B C D E F G H I J K L M N O P Q R S T U V W X Y Z

Esoterica - Dont Rely On Anyone tab

Esotericas official page - www.esoterica1.com

Tuning:DADGBE

Intro/verse
e|---------------------------------------|
B|---------------------------------------|
G|---------------------------------------|
D|8-88-88-888------8-8-88-88-888------11-|
A|8-88-88-888--------8-88-88-888---------|
D|8-88-88-888-8h11---8-88-88-888-8h11----|
  . .. .. ...        . .. .. ...

e|---------------------------------------|
B|---------------------------------------|
G|---------------------------------------|
D|8-88-88-888------8-8-88-88-88---88-----|
A|8-88-88-888--------8-88-88-88-9-88-----|
D|8-88-88-888-8h11---8-88-88-88---88-11--|
  . .. .. ...        . .. .. ..   ..

main lead riff
e|-----------------------------------------------------------|
B|-----------------------------------------------------------|
G|15-1515-1515-1515-1515-151515/16-1616-1616-16\13-1313-1313-|
D|-----------------------------------------------------------|
A|13-1313-1313-1313-1313-131313/14-1414-1414-14/11-1111-1111-|
D|-----------------------------------------------------------|

e|-------------------------------------------------------------|
B|-------------------------------------------------------------|
G|15-1515-1515-1515-1515-151515/16-1616-1616-16\11-1111-111110-|
D|-------------------------------------------------------------|
A|13-1313-1313-1313-1313-131313/14-1414-1414-14/-9--9-9--9-9-8-|
D|-------------------------------------------------------------|

Bridge
e|-----------------------------------------------------------------------|
B|-----------------------------------------------------------------------|
G|-----------------------------------------------------------------------|
D|8-88-88-11-1111-1111-13-1313-1313-16-1616-1616-8-88-88-16-1616-1616-15-|
A|8-88-88-11-1111-1111-13-1313-1313-16-1616-1616-8-88-88-16-1616-1616-15-|
D|8-88-88-11-1111-1111-13-1313-1313-16-1616-1616-8-88-88-16-1616-1616-15-|

Chorus
e|----------------------------------------|
B|----------------------------------------|
G|------10--------8-----------------------|
D|8-------8-8------8-8-----11-----10----8-|
A|8-------8-8------8-8--------------------|
D|8-8h11--8-8-8h11-8-8-8h11---8h10--8h10--|

Verse 2 (lead)
e|------15----------14-----------------------------|
B|14----------14-----------14----15-------14----15-|
G|---15----------15-----------15-------------15----|
D|-------------------------------------------------|
A|-------------------------------------------------|
D|-------------------------------------------------|

Bridge 2 (lead)
e|---13-14-------14----------13-14-------14----|
B|---------------------------------------------|
G|15----------15----12----15----------15----12-|
D|---------------------------------------------|
A|---------------------------------------------|
D|---------------------------------------------|

That's about it. The middle 8 is basically entirely a# with the lead playing the main 
and finish on A# too

Yay; first esO tab XD
Tap to rate this tab
# A B C D E F G H I J K L M N O P Q R S T U V W X Y Z