Esoterica - The Humming Song tab

Verse 1
C-|------------------------------------------------------------------|
G-|------------------------------------------------------------------|
Eb|-2-2-2-2-----------------2-2-2-2---------2-2-2-2---------2-2-2-2--|
Bb|---------5-5-5-5-3-3-3-----------3-3-3-----------2-2-2------------|
F-|-----------------------5---------------5---------------5----------|
Bb|2-2-2-2-2-2-2-2-2-2-2-2-2-2-2-2-2-2-2-2-2-2-2-2-2-2-2-2-2-2-2-2---|

Chorus
C-|----------------------------------------------------------------------|
G-|----------------------------------------------------------------------|
Eb|-------9-99-999910-101010-109-99-99997-777-75-55-5555-----------------|
Bb|7-777-79-99-999910-101010-109-99-99997-777-75-55-55559-999-97-77-7777-|
F-|7-777-77-77-7777-8--8-8-8--87-77-77775-555-53-33-33339-999-97-77-7777-|
Bb|7-777-7----------------------------------------------9-999-97-77-7777-|

Verse 2(a)
C-|--------------------------------|
G-|--------------------------------|
Eb|--------------------------------|
Bb|--------------------------------|
F-|--------------------------------|
Bb|7---5---0---7---0---3---2---7---|

Verse 2 (b)
C-|--------------------------------|
G-|--------------------------------|
Eb|--------------------------------|
Bb|--------------------------------|
F-|--------------------------------|
Bb|7---9---0---7---0---3---2---7---|

Middle 8
C-|--------------------------------------------------------------------|
G-|--------------------------------------------------------------------|
Eb|--------------------------------------------------------------------|
Bb|--------------------------------------------------------------------|
F-|--------------------------------------------------------------------|
Bb|7---9---12---10---5---3---5---5---7---9---12---10---5---5---5---5---|

Outro
C-|----------------------------------------|
G-|----------------------------------------|
Eb|----------------------------------------|
Bb|----------------------------------------|
F-|----------------------------------------|
Bb|0---7---0---7---0-----------------------|




***NOTE***
Verse 2 (a) and Verse 2 (b) are played throughout, I've included them in the arrangement 
where they're most prominent

ARRANGEMENT
Verse 1
Verse 1
Verse 2 (a)
Chorus X2
Verse 2 (a) X2
Verse 2 (b)
Chorus X3
Middle 8
Chorus X2
Outro
Tap to rate this tab
 
# A B C D E F G H I J K L M N O P Q R S T U V W X Y Z