Guitaretab - guitar tabs
Song name
# A B C D E F G H I J K L M N O P Q R S T U V W X Y Z

Especimen - Reza Por Mi tab

*  PARA PODER TOCAR LA CANCION DEBEN DE BAJAR LA SEXTA CUERDA DE LA GUITARRA UN TONO Y 
en   D )

    INTRO DE LA CANCION CON GUITARRA Y DISTORCION

    ------------------------------------------------------------------------------|
    ------------------------------------------------------------------------------|
    ------------------------------------------------------------------------------|
    ----55-------77----------3235--------------77----3235-------------------------|
    ----33-------77----------3235--------------77----3235-------------------------|
    --------------77----------3235--------------77----3235------------------------|

    DESPUES DE REPETIR EL INTRO 2 BESES LA CANCION COMIENSA CON UN CORO Y SE TOCA LO 
SE REPITE DURANTE TODA LA CANCION

    --------------------------------------------------------------------------------|
    --------------------------------------------------------------------------------|
    --------------------------------------------------------------------------------|
    ---555555-777777-333333-555555--------------------------------------------------|
    ---333333-777777-333333-555555--------------------------------------------------|
    -------------777777-333333-555555-----------------------------------------------|

    DESPUES EN EL CORO QUE DISE  : "SUFRE LLORA REZA POR MI"  SE TOCA LA PARTE QUE SIGUE
[ Tab from: http://www.guitaretab.com/e/especimen/88821.html ]
   ---------------------------------------------------------------------------------|
   ---------------------------------------------------------------------------------|
   ---------------------------------------------------------------------------------|
   --55------77-----3235------------------------------------------------------------|
   --33------77-----3235------------------------------------------------------------|
   -----------77-----3235-----------------------------------------------------------|

   ESTE ES EL SOLO DE LA GUITARRA ESTUBO MUY FACIL SACARLO Y TAMBIEN ES FACIL DE TOCAR

   ----------------------------------------------------------------------------------|
   ----------------------------------------------------------------------------------|
   --555-9-7-5-----9-7-5-----9-7-5-----5-7-------------------------------------------|
   --------------777-------555-------777---------------------------------------------|
   ----------------------------------------------------------------------------------|
   ----------------------------------------------------------------------------------|

    SE REPITE DE NUEVO PERO CON UN FINAL DIFERENTE
   ----------------------------------------------------------------------------------|
   ----------------------------------------------------------------------------------|
   --555-9-7-5-----9-7-5-----9-7-5-----5-7/12----------------------------------------|
   --------------777-------555-------777---------------------------------------------|
   ----------------------------------------------------------------------------------|
   ----------------------------------------------------------------------------------|

   ESO ES TODO LA CANCION ES MUY FACIL SOLO TIENEN QUE ESCUCHARLA PARA PODER ACOMODAR 
LAS PARTES , ESPERO LOS FANS DE ESPECIMEN
   DISFRUTEN ESTA CANCION Y SI ME EQUIBOQUE EN ALGUNA PARTE DEJENME EL MENSAJE CON LA 
a mi correo darkvazquez@hotmail.com
Advertisement will be closed in 10 seconds