Song name
# A B C D E F G H I J K L M N O P Q R S T U V W X Y Z

Espen Lind - Hallelujah tab

 Song: Hallelujah
Artists:Espen Lind,Kurt Nilsen,Alejandro Fuentes,Askil  Holm
Album: Hallelujah Live
|--------------|
|Capo on Fret 5|
|--------------|
original recorded by:LEONARD COHEN
TABBED BY:  ATZE-BIMBO---
!!!!!!!!!!!!!!!!!!!!!!!!!!!!!!!!!!!!!!!!!!!!!!!!!!!!!!!!!!!!!!!!!!
!INFO:notice that all chords were played with 3rd fret on e and b! !string(except d and 
                                         !
!!!!!!!!!!!!!!!!!!!!!!!!!!!!!!!!!!!!!!!!!!!!!!!!!!!!!!!!!!!!!!!!!!

this version:http://www.youtube.com/watch?v=T2NEU6Xf7lM

Intro
       G           e              G              e

e|---------3------------3------------3-----------3---------|
B|-------3-3-3--------3-3-3----------3-3-------3-3-3-------|
G|-----0-------0----0-------0--------0---0---0-------0-----|
D|--------------(2)----------------0------(2)--------------|
A|--------------(2)-------------0h2-------(2)--------------|
E|--3--------3-2-0--------0-2-3--------3-2-0-------0-2-----|

VERSE
       G           e              G              e

e|---------3------------3------------3-----------3---------|
B|-------3-3-3--------3-3-3----------3-3-------3-3-3-------|
G|-----0-------0----0-------0--------0---0---0-------0-----|
D|--------------(2)----------------0------(2)--------------|
A|--------------(2)-------------0h2-------(2)--------------|
E|--3--------3-2-0--------0-2-3--------3-2-0-------0-2-----|

          C      D               G        D
e|--------3-----2-----2h3----------3-----0h2-----2--------------|
B|------3---3-----3-------3------3---3-------3-----3------------|
G|----0-------0-----2-------2--0-------0-------0-----0----------|
D|--3-----------0-----0------------------0-------0--------------|
A|--2-------------------------2---------------------------------|
E|----------------------------3---------------------------------|
              G      e     D          e            C
e|------------3---------3-2-----------3------------3--------|
B|----------3-3-3-------3---3-------3---3--------3---3------|
G|--------0-------0---0-------0---0-------3----0-------0----|
D|------------------2-----0-----2------------2--------------|
A|------2-----------2-----------2------------3--------------|
E|------3-----------0-----------0---------------------------|
And it goes...
      D            b(Bm)         e          e                    b(Bm)
e|-2-----2-----------2-----------3----------3-------------|     |--2----|
B|---3-----3-------3---3-------3---3------3---3-----------|     |--3----|
G|-----0-----0---4-------4---0-------0---0------0---------|     |--4----|
D|-0-----------4-----------2-----------2------------------|     |--4----|
A|-------------2-----------2-----------2------------------|    |--2-----|
E|-------------------------0-----------0------------------|    |--2-----|
                                           Halle-
CHORUS
          C            C            e     C/G   C
e|--------3------------3-----------2-----2h3----2--------------------------|
B|------3---3--------3---3-------3---3---3----3-3-3------------------------|
G|----0-------0----0-------0---0-------0-0--0---0---0----------------------|
D|--2------------2-----------2---------------------------------------------|
A|--3------------3-----------2-----------2---------------------------------|
E|---------------------------0---------------------------------------------|
    lu----jah...
          C           C           G      C  /   G
e|--------3------------3----------3------2-----2h3-----------3-----3--------|
B|------3---3--------3---3------3---3------3---------3-----3---3---3--------|
G|----0-------0----0-------0--0-------0------2-----2-----0-------0-0--------|
D|--2------------2-----------------------0-----0-------------------0--------|
A|--3------------3-----------2-------------------------2-----------2--------|
E|---------------------------3-------------------------3-----------3--------|
                      Halleluuuuuuuuuuuuuuuuuuuuuuuuu-jaaaaaaaahhhhh


so...that's all...if you mastered this parts you'll also master the part at the end...
pls comment and rate...

and enjoy the song...
Tap to rate this tab
 
# A B C D E F G H I J K L M N O P Q R S T U V W X Y Z