Song name
# A B C D E F G H I J K L M N O P Q R S T U V W X Y Z

Espen Lind - Unloved Live tab

Unloved Live from Oslo Spektrum

Intro Guitar 1 (Kurt Nilsen)
Capo 3th fret
	Am 		  	C 		 G	  	    D
E-|-----------------------------0----------------3-----3------------3-2-2--------|
B-|------0h1h0------------------1-0--------------3-3-----3----------3-3-3--------|
G-|------2-----2-0--------------0---0p2-0--------0---0-----0--------2-2-2--------|
D-|------2----------------------2----------------0------------------0-0-0--------|
A-|------0----------------------3----------------2-------------------------------|
E-|----------------------------------------------3-------------------------------|



intro Guitar 2 (Espen Lind)
Capo 3th fret
            
E-|------------------------------------------------------------------------------|
B-|----------------------------------------------------------3-------------------|
G-|----2/5---4---2---0----0p2-2/5-4-0-2-0------0-p2-4--4--5-----0-----2-2--------|
D-|---------------------0p2---------------0-p2---------------------2/5-----------|
A-|------------------------------------------------------------------------------|
E-|------------------------------------------------------------------------------|



 Am                       C           G                  D
I bet you dont know how it feels to be walking past your house at night
  Am                       C           G                  F
I bet you dont know how it feels to stand outside and watch the lights
      Am                    F                G				Em
and i dont know why i just cant seem dry, the rain on my face are the teares ive cryed
   Am                        F              G			Em
i think of the day when you pushed me away, what can i do when i still love you.


Chorus:

Am
what can i do
C
where can i hide
G			     D
from all of these feelings i keep inside.
Am
its dark as can be
    C
and you`ll never see
G	              F
just what its like to feel,
                      Am
what its like to feel unloved



Verse 2:

I bet you dont know how it feels when you life flashes before your eyes

I bet you dont know how it feels the moment when you realize

that you lost all you had, all thats good all thats bad

and everyone tells you, you should be glad

your love for`me is gone, i should be moving on

and find someone new, but i still love you


Chorus:

Am
what can i do
C
where can i hide
G			     D
from all of these feelings i keep inside.
Am
its dark as can be
    C
and you`ll never see
G	              F
just what its like to feel,
                      D
what its like to feel unloved
         Am	         D
if i culd turn back time
 	  Am 		D
if i culd press rewind
 	       C                 B
go back to the days when you were mine

Tabed By RuneB & Chrish
Tap to rate this tab
# A B C D E F G H I J K L M N O P Q R S T U V W X Y Z