Song name
# A B C D E F G H I J K L M N O P Q R S T U V W X Y Z

Espinoza Paz - El Proximo Viernes tab

-------------------------------------------------------------------------------
			     El Proximo Viernes - Espinoza Paz
-------------------------------------------------------------------------------
Tabbed by:convoy14
Email:reyes_najera214@netzero.net

Tuning:Standard

this is my first tab send me any corrections if needed.

ojala que les guste

e |----------------------------------------------------|
B |-------1h3-1h3-1---1h3-1---1h3-1-----1-3-3/5--------|
G |-0-0-5-----------0-------0---------0----------1h2---|
D |----------------------------------------------------|
A |----------------------------------------------------|
E |----------------------------------------------------|

e |---------------------------------------------------------------|
B |------1h3-1---1h3-1---6-5-3-2h3-----6-5-3-2h3----1--1-3s5----3-|
G |----2-------2-------2-----------2--------------2--2------------|
D |---------------------------------------------------------------|
A |---------------------------------------------------------------|
E |---------------------------------------------------------------|


      C                 G
Hola Bebe, Como has estado?
             F
Tal vez no sepas, quien habla
      Dm                G
O tal vez lo hayas olvidado.

  F                  C
Bebe, yo no soy tan malo
  F                 C
Bebe, sabes que te amo
   Dm
Salgamos el viernes
     F          G
Y hablemos de frente.

            C
Igual y le robo un beso a tu boca
   C7         F
Y dejas de creer que soy poca cosa
              Dm                    F
Igual y te explico, igual y no entiendes
          G
Que te necesito.

              C
Igual y te abrazo, con mucha ternura
       C7       F
Y hago desaparecer, toditas tus dudas

              Dm
Igual y he fallado, pero dime
    F                  G
Quien no se ha equivocado.

             C
Igual y de plano, ya no quieres verme
      C7       F
Pero dejame besar de nuevo tu frente
            Dm                F   G
Igual y te pido volverte a miraaaaar
                 C
El proximo viernes.

e |----------------------------------------------------|
B |-------1h3-1h3-1---1h3-1---1h3-1-----1-3-3/5--------|
G |-0-0-5-----------0-------0---------0----------1h2---|
D |----------------------------------------------------|
A |----------------------------------------------------|
E |----------------------------------------------------|

e |---------------------------------------------------------------|
B |------1h3-1---1h3-1---6-5-3-2h3-----6-5-3-2h3----1--1-3s5----3-|
G |----2-------2-------2-------------2------------2--2------------|
D |---------------------------------------------------------------|
A |---------------------------------------------------------------|
E |---------------------------------------------------------------|

e |---------------------------------------------------------------|
B |---5--3-----0-0-1-0-0---0h1------------------------------------|
G |---------------------------------------------------------------|
D |---------------------------------------------------------------|
A |---------------------------------------------------------------|
E |---------------------------------------------------------------|


            C
Igual y te robo un beso...


www.espinozapaz.com
===============================================================================
Tap to rate this tab
# A B C D E F G H I J K L M N O P Q R S T U V W X Y Z