Espinoza Paz - El Proximo Viernes chords

Highlighted       Show chord diagrams
Tuning Standard: eADGBE
____________________________________________________
Chords Used:

    C  G  F  Dm C7
E|--0--3--1--1--0--|
B|--1--3--1--3--1--|
G|--0--0--2--2--3--|
D|--2--0--3--0--2--|
A|--3--2--x--X--3--|
e|--x--3--x--X--x--|
____________________________________________________
Notations:

x- Do Not Play (Mute)
/- Slide Up
\- Slide Down
h- Hammer On
p- Pull Off
_____________________________________________________
Intro:

E|---------------------------------------------|
B|---------------------------------------------|
G|------5-7--5h7-5---5h7-5---5h7-5--5-5-7/9-2--|
D|--5-5------------5-------5-------------------|
A|---------------------------------------------|
e|---------------------------------------------|

E|---------------------------------------------------|
B|----1---1h3-1---1h3-1---5h6-5-3-3---1---5h6-5-3-3--|
G|--2---2-------2-------2-----------2---2------------|
D|---------------------------------------------------|
A|---------------------------------------------------|
e|---------------------------------------------------|

E|-------------------------------------------|
B|--1----1---3h5-3---3h5-3---3----1---3-5-3--|
G|-----2---2-------2-------2----2---2--------|
D|-------------------------------------------|
A|-------------------------------------------|
e|-------------------------------------------|
__________________________________________________________

Verse 1: 

 C                    G
Hola Bebe, Como has estado?
             F
Tal vez no sepas, quien habla
      Dm                G
O tal vez lo hayas olvidado.

  F                  C
Bebe, yo no soy tan malo
  F                 C
Bebe, sabes que te amo
   Dm
Salgamos el viernes
     F          G
Y hablemos de frente.

            C
Igual y le robo un beso a tu boca
   C7         F
Y dejas de creer que soy poca cosa
              Dm                    F
Igual y te explico, igual y no entiendes
          G
Que te necesito.

              C
Igual y te abrazo, con mucha ternura
       C7       F
Y hago desaparecer, toditas tus dudas

              Dm
Igual y he fallado, pero dime
    F                  G
Quien no se ha equivocado.

             C
Igual y de plano, ya no quieres verme
      C7       F
Pero dejame besar de nuevo tu frente
            Dm                F   G
Igual y te pido volverte a miraaaaar
                 C
El proximo viernes.
_____________________________________________________

Reapeat Intro:
_____________________________________________________

Verse 2:
             C
Igual Y Le Robo, Un Beso A Tu Boca 
    C7       F
Y Dejas De Creer K Soy Poca Cosa 
             Dm                 F
Igual Y Te Explico, Igual Y No Entiendes 
            G
K Te Necesito 

            C                 
Igual Y Te Abrazo, Con Mucho Ternura 
        C7      F   
Y Hago Desaparecer Toditas Tus Dudas 
            Dm                 F                 G
Igual Y He Fallado Pero Dime Quien No Se A Equivocado 

             C                          
Igual Y De Plano Ya No Quieres Verme 
       C7     F
Pero Dejame Besar De Nuevo Tu Frente 
            Dm               F    G 
Igual Y Te Pido Volverte A Miraaaar

 El Ultimo Viernes 
_______________________________________________________

Outro: Reapeat Intro
_______________________________________________________

Email Any Corrections: juanpablo0019@yahoo.com
                       juanpablo0019@gmail.com
Tap to rate this tab
 
# A B C D E F G H I J K L M N O P Q R S T U V W X Y Z