Guitaretab - guitar tabs
Song name
# A B C D E F G H I J K L M N O P Q R S T U V W X Y Z

Esteban - Amazing Grace tab

This song...For some reason I accidentally figured out 
lol..IT was a lot of work and I would appreciate it if 
for this one you let people know about it...Thank you!


Esteban - Amazing Grace FINGERPICK IT

                 Tabbed By:
	   Acoustical-Emotion.com  (Esteban Mega Fansite)
			 
	TREMELO!!!!!! PLEASE READ THIS!!!...In order to play correctly!
In order to play it the advanced way please play every 
chord that has this symbol "  " next to the chord 
as a tremelo...The first chord is shown to you just 
in case you do not know what a tremelo is!  You'll have 
to listen to the song of course to play it exactly!
	 
-----Main Verse-----
 
|-------3-----3-3-3---3-3-3---3-3-3---3-3-3---3-3-3---|
|---3/5-----------------------------0-----------------|
|---0-----------------------0-------------------------|
|---0---------------0-----------------------0---------|
|-----------------------------------------------------| 
|---3-------3-----------------------------------------|

|-----3-3-3---3-3-3--7--5--3---7---5---3--0-0-0h3--|
|-----------0------------------0---3---0-----------|
|---0---------------8--6--4----0---5---0-----------|
|------------------------------0---0---0-----------|
|-----------------------------------------------------| 
|------------------------------7--------3-----------|

|---0-------------------------------------------------|
|-----3-3-----3-----3---------------------------------|
|-----0---0-----0-------------------------------------|
|-----0-----0-----0-----------------------------------|
|-----------------------------------------------------| 
|-----3-----------------------------------------------|
[ Tab from: http://www.guitaretab.com/e/esteban/140838.html ]
|--------------3---7--5--3-7---5/7--9--10-----------|
|--3--3-3---5--0-----------0---3-------7---7--------|
|--0--0-0------0--8--6--4--0---5-------7-----7------|
|--0--0-0------0-----------0---0-------0------------|
|-----------------------------------------------------| 
|--3-----------3-----------7------------------------|

|---12-----------14-------7h10--10---7--5--3----7---|
|------9-------11---------------7---------------0---|
|--------9---11-----------------7---8--6--4-----0---|
|-------------------------------0---------------0---|
|-----------------------------------------------------| 
|------------------------------------------------7---|

|---5----3----0--0-0h3--0---------------------------|
|---3----0-----------------3------------------------|
|---5----0----0--0-0h4--0--0--0---------------------|
|---0----0-----------------0----0-------------------|
|-----------------------------------------------------| 
|---------3-----------------3------3-----------------|

|--------3--3-----7--5--3--7---5--5/7--5--3-----------|
|---3/5-----0--------------0---3----------0-0---------|
|-----------0----8--6--4---0---5----------0---0-------|
|------------------------------0----------------------|
|-----------------------------------------------------| 
|-----------3--------------7--------------3-----3-----|

|-------------------3---------------------------------|
|--0---1--0-------------------------------------------|
|--0---0--0-------------------------------------------|
|--0---2--0-------------------------------------------|
|------3----------------------------------------------| 
|--3------3-------------------------------------------|

|-----------------------------------------------------|
|-----------------------------------------------------|
|-----------------------------------------------------|
|-----------------------------------------------------|
|-----------------------------------------------------| 
|-----------------------------------------------------|

Any questions or comments?  Let me know!  Even something
just nice and cool to say lol.......just e-mail me =D...
(Are you a Fan of Esteban? Check out Acoustical-emotion.com
for more cool tabs like this!!!)

                         Love Everyone,
                           Sean Andresen
Acoustical_emotion@yahoo.com
Related for Amazing Grace tab