Guitaretab - guitar tabs
Song name
# A B C D E F G H I J K L M N O P Q R S T U V W X Y Z

Esteban - Country Pie tab

Country Pie
By Esteban
Tuning: Standard (EADGBE)

E|---------------3~--3-3---------------3---------------0~--------|
B|---------------0~--0-0---------------0---------------1~-1--2---|
G|---------------0~--0-0---------------0----------0h2--0~--------|
D|----------0h2--0~--0-0----------0h2--0------0h2------2~-2--3---|
A|------0h2------2~--2-2------0h2------2--0h3----------3~-3--4---|
E|--0h3----------3~--3-3-0h3----------3---------------0~--------|

E|-2-2-2-2---------------------------------------3---------------|
B|-3-3-3-3---------------------------------------0---------------|
G|-2-2-2-2---2h4-2-0-----------------------------0---------------|
D|-0-0-0-0-----------4h2p0-2h4p200---------------0---------------|
A|---------------------------------3p2-----------2---------------|
E|------------------------------------0h1-0h2-0h3---------------|
[ Tab from: http://www.guitaretab.com/e/esteban/180037.html ]
E|---------------3~--3-3---------------3---------------0~--------|
B|---------------0~--0-0---------------0---------------1~-1--2---|
G|---------------0~--0-0---------------0----------0h2--0~--------|
D|----------0h2--0~--0-0----------0h2--0------0h2------2~-2--3---|
A|------0h2------2~--2-2------0h2------2--0h3----------3~-3--4---|
E|--0h3----------3~--3-3-0h3----------3---------------0~--------|

E|-2-2-2-2---------------------------------------3---------------|
B|-3-3-3-3---------------------------------------0---------------|
G|-2-2-2-2---2h4-2-0-----------------------------0---------------|
D|-0-0-0-0-----------4h2p0-2h4p200---------------0---------------|
A|---------------------------------3p2-----------2---------------|
E|------------------------------------0h1-0h2-0h3---------------|

E|--0h1p0-------------------------------------3~-----------------|
B|---------1p0------------------------------0--------------------|
G|--------------2p0-----------------------0----------------------|
D|-------------------2p0----------------0------------------------|
A|------------------------------------2--------------------------| 
E|-----------------------0h1-0h2-0h3----------------------------|

Key:
h: hammer on
p: pull off
~: vibrato
You can play this as many times as you like.
Related for Country Pie tab