Song name
# A B C D E F G H I J K L M N O P Q R S T U V W X Y Z

Esteban - Wildwood Flowers tab

WildWood Flowers

This is a little tune that i learnt off esteban when i got my first guitar..Simple song 
a little practice to get it right. You can play this song at any tempo. Hope you enjoy

H= hammer ons
P= pull offs
(LR)=let ring

down down up down down is the strum patter for the F in the 2 and 3 part


   C
E|-------0-0---------0-0--------0-0-----|
B|-------1-----------1----------1-------|
G|-----0-0---0H2-0---0----------0-------|
D|---2-------------2----2H3-2-0-----0H2-|
A|-3------------------------------------|
E|--------------------------------------|

  C            F      C(LR)
E|-000-000-----1-1111-0---------0-0---------0-0---------0-0-----|
B|-111-----1---1-1111-1---------1-----------1-----------1-------|
G|-----------0-2-2222-0-------0-0---0H2-0---0-----------0-------|
D|-------------3-3333-2-----2-------------2-----2H3-2-0-----0H2-|
A|-------------3-3333-3---3-------------------------------------|
E|-------------1-1111-0-----------------------------------------|

  C              F      C(LR)
E|-0-0-0-000-----1-1111-0---------0-0---------0-0---------0-0----------0--|
B|-----------3-1-1-1111-1---------1-----------1-----------1-----------1---|
G|---------------2-2222-0-------0-0---0H2-0---0-----------0----------0----|
D|---------------3-3333-2-----2-------------2-----2H3-2-0-----0H2---2-----|
A|---------------3-3333-3---3--------------------------------------3------|
E|---------------1-1111-0-----------------------------------------0-------|


If you have and questions or corrections email me at rickywyant91@hotmail.com...thanks!
Tap to rate this tab
# A B C D E F G H I J K L M N O P Q R S T U V W X Y Z