Song name
# A B C D E F G H I J K L M N O P Q R S T U V W X Y Z

Esteban - Malaguena Rumba tab

e---0---0-----0---0-----0---0---0---0---0---0-----|  play this song fast when u get used to this
b---------0---------0-----1---0-------------------|
g-----1---------1------2----------2---0---3----2--| times
d-2---------2-------------------------------------|
a-------------------------------------------------|
e-------------------------------------------------|

----0---0---0---0---0---0---0---0---0---0---0---0----|
----------------------0---1-------0---1---3---5------|
--------------1---2-----------2----------------------|
--2---2---4------------------------------------------|
-----------------------------------------------------|
-----------------------------------------------------|

----0---0---0---0---0---0---0---0---0----0----0-----------------|
--6---5---3---1---3---0-------0-------2-----3-------------------|
--------------------------2-------3-----------------------------|
----------------------------------------------------------------|
----------------------------------------------------------------|
----------------------------------------------------------------|
Tap to rate this tab
# A B C D E F G H I J K L M N O P Q R S T U V W X Y Z