Song name
# A B C D E F G H I J K L M N O P Q R S T U V W X Y Z

Esteban - Sedona Sunrise tab

This song...I couldn't figure the whole thing out...
But just the riff is beautifull...I don't think that
Sedona Sunrise is the actual name where Esteban Got
the idea from but..I know it's his own variation. 

Esteban - Sedona Sunrise
                 Tabbed By:
	   Acoustical-Emotion.com  (Esteban Mega Fansite)
           We have an MP3 player for you to listen to while
           trying to play our tabs!!!!  Check it out.
			 
			 
-----Main Verse-----
 
|---5-5-5-3-2-----------------------------------------|
|--------------3-3-3-2-0----3----3-3-3-2-0------------|
|---------------------------0--------------2----------|
|---------------------------0-------------------------|
|-----------------------------------------------------| 
|---------------------------3(hold)-------------------|
                                                      
|---2-2h3-2---5---2-2h3-2-----------------------------|
|-------------2-------------1-----------1------1--1---|
|-------------2-------------2--2------2------0----2---|
|---------------------------0----0--3------2------0---|
|-----------------------------------------------------| 
|-----------------------------------------------------|

|-----------------------------------------------------|
|-----------------------------------------------------|
|-----------------------------------------------------|
|-----------------------------------------------------|
|-----------------------------------------------------| 
|-----------------------------------------------------|


Any questions or comments?  Let me know!  Even something
just nice and cool to say lol.......just e-mail me =D...
(Are you a Fan of Esteban? Check out Acoustical-emotion.com
for more cool tabs like this!!!)

                         Love Everyone,
                           Sean Andresen
Acoustical_emotion@yahoo.com
Tap to rate this tab
 
# A B C D E F G H I J K L M N O P Q R S T U V W X Y Z