Song name
# A B C D E F G H I J K L M N O P Q R S T U V W X Y Z

Estranged - Itu Kamu tab

-------------------------------------------------------------------------------
			     ITU KAMU - estranged
-------------------------------------------------------------------------------
Tabbed by:besig
Email:ahmad_imran10@hotmail.com

Tuning: standard tuning

ni solo part dia, gempak baii!

e|---------------------------------------------------------------------------|
B|---------------------------------------------------------------------------|
G|--------------------------------------------------------------12-----------|
D|--10-12-15-12-10~----10-12-15-12-----10-12-15-12-10~----10h12----12-15~----|
A|---------------------------------15~---------------------------------------|
E|---------------------------------------------------------------------------|

e|---------------------------------------------------------------------------|
B|---------------------------------------------------------------------------|
G|---------------------------------------------------------------------------|
D|---------------------------------------------------------------------------|
A|--10-12-15--15--17-15--15-15-12-15-15-12/0----12-15--15--17-15--15-17-20---|
E|---------------------------------------------------------------------------|

e|---------------------------------------------------------------------------|
B|---------------------------------------------------------------------------|
G|---------------------------------------------------------------------------|
D|------------------10-12-15-12-10~----10-12-15-12--------10-12-15-12-10~----|
A|--17-15-17---------------------------------------12~-----------------------|
E|---------------------------------------------------------------------------|

e|---------------------------------------------------------------------------|
B|---------------------------------------------------------------------------|
G|--------12-----------------------------------------------------------------|
D|--10h12----12-15~----------------------------------------------------------|
A|---------------------10-12-15--15--17-15--15-15-12-15-15-12----------------|
E|---------------------------------------------------------------------------|




e|---------------------------------------------------------------------------|
B|---------------------------------------------------------------------------|
G|-12b-12b 12b 12 12 10~----------------------------------------------------|
D|---------------------------------------------------------------------------|
A|---------------------------------------------------------------------------|
E|---------------------------------------------------------------------------|

Tap to rate this tab
 
# A B C D E F G H I J K L M N O P Q R S T U V W X Y Z