Guitaretab - guitar tabs
Song name
# A B C D E F G H I J K L M N O P Q R S T U V W X Y Z

Eternal Decision - Power tab

this may not be 100% but i prayed before i tried so let's see how it sounds 

and this is my first tab so any corrections feel free to yell at me haha.

you might also wanna listen to the song for timing and rhythm.
    

   intro

D|-------------------------------------|
A|-------------------------------------|  
F|-------------------------------------| x8
C|---2--2----2------2----6--5----------|
G|---2--2----2------2----6--5----------|
D|---0--0----0------0----4--3----------|
   PM.........


   verse

D|-------------------------------------------|
A|-------------------------------------------|
F|-------------------------------------------|
C|----2---2--2--2----------2---2--2--2--2----|
G|----2---2--2--2--x16-----2---2--2--2--2----|
D|----0---0--0--0----------0---0--0--0--0----|
   PM.....................................
  
      
chorus 1

D|-----------------------------------|
A|-----------------------------------|
F|-----------------------------------|
C|---2---5---7---8---2---5---8---7---|x4
G|---2---5---7---8---2---5---8---7---|
D|---0---3---5---6---0---3---6---5---|


verse 2

D|---------------------------------------------|
A|---------------------------------------------|
F|---------------------------------------------|
C|---2---2--2--2--2----------2---2--2--2--2----|
G|---2---2--2--2--2--x16-----2---2--2--2--2----|
D|---0---0--0--0--0----------0---0--0--0--0----|
   PM.....................................


chorus 2

D|-----------------------------------|
A|-----------------------------------|
F|-----------------------------------|
C|---2---5---7---8---2---5---8---7---|x4
G|---2---5---7---8---2---5---8---7---|
D|---0---3---5---6---0---3---6---5---|


D|----------------------------------------------------------------|
A|----------------------------------------------------------------|
F|----------------------------------------------------------------|
C|----5---5--5--5------7---7--7--7----5---5--5--5---4---2---2-2---|
G|----5---5--5--5------7---7--7--7----5---5--5--5---4---2---2-2---|
D|----3---3--3--3------5---5--5--5----3---3--3--3---2---0---0-0---|
          .  .  .          .  .  .        .  .  .           . .


D|-----------------------------------|
A|-----------------------------------|
F|-----------------------------------|
C|---2---5---7---8---2---5---8---7---|x2
G|---2---5---7---8---2---5---8---7---|
D|---0---3---5---6---0---3---6---5---|

[ Tab from: http://www.guitaretab.com/e/eternal-decision/169797.html ]
D|----------------------------------------------------------------|
A|----------------------------------------------------------------|
F|----------------------------------------------------------------|
C|----5---5--5--5------7---7--7--7----5---5--5--5---4---2---2-2---|
G|----5---5--5--5------7---7--7--7----5---5--5--5---4---2---2-2---|
D|----3---3--3--3------5---5--5--5----3---3--3--3---2---0---0-0---|
          .  .  .          .  .  .        .  .  .           . .

D|-----------------------------------|
A|-----------------------------------|
F|-----------------------------------|
C|---2---5---7---8---2---5---8---7---|x4
G|---2---5---7---8---2---5---8---7---|
D|---0---3---5---6---0---3---6---5---|
    
   

bridge

D|---------------------------------------------|
A|---------------------------------------------|
F|---------------------------------------------|
C|---2------2-2---2-----2-----2-2---5----2-2---|x4
G|---2------2-2---2-----2-----2-2---5----2-2---|
D|---0------0-0---0-----0-----0-0---3----0-0---|
            . .   .           . .        . .


D|-------------------------------------|
A|-------------------------------------|  
F|-------------------------------------| x4
C|---2-2-----2------2----6--5----------|
G|---2-2-----2------2----6--5----------|
D|---0-0-----0------0----4--3----------|
   PM......... 


verse 3

D|---------------------------------------------|
A|---------------------------------------------|
F|---------------------------------------------|
C|---2---2--2--2--2----------2---2--2--2--2----|
G|---2---2--2--2--2--x16-----2---2--2--2--2----|
D|---0---0--0--0--0----------0---0--0--0--0----|
   PM..............          .   ..........


chorus 2
 


outro

D|---------------------------------------------|
A|---------------------------------------------|
F|---------------------------------------------|
C|---2------2-2---2-----2-----2-2---5----2-2---|x4
G|---2------2-2---2-----2-----2-2---5----2-2---|
D|---0------0-0---0-----0-----0-0---3----0-0---|
            . .   .           . .        . .


D|-------------------------------------|
A|-------------------------------------|  
F|-------------------------------------| x4
C|---2-2-----2------2----6--5----------|
G|---2-2-----2------2----6--5----------|
D|---0-0-----0------0----4--3----------|
     . .     .   


D|-----------------------|
A|-----------------------|  
F|-----------------------|
C|---2-2-----2------2----|
G|---2-2-----2------2----|
D|---0-0-----0------0----|
     . .     . 
Related for Power tab
×
Power