Guitaretab - guitar tabs
Song name
# A B C D E F G H I J K L M N O P Q R S T U V W X Y Z

Eternal Decision - Strength tab

guitar I
D|-----------------------------------------------------|
A|-----------------------------------------------------|
F|-----------------------------------------------------|
c|---5\4--5\4--4/5--5\4--5\4--4/5--5\4--5\4--4/5-5\4---|
G|---5\4--5\4--4/5--5\4--5\4--4/5--5\4--5\4--4/5-5\4---|
D|---3\2--3\2--2/3--3\2--3\2--2/3--3\2--3\2--2/3-3\2---|

D|----------------------------------------------------------|
A|----------------------------------------------------------|
F|------------------------------------------------------3---|
c|---5\4--5\4--4/5--5\4--5\4--4/5--5\4--5\4--4/5-5\4--4-3---|
G|---5\4--5\4--4/5--5\4--5\4--4/5--5\4--5\4--4/5-5\4--4-1---|
D|---3\2--3\2--2/3--3\2--3\2--2/3--3\2--3\2--2/3-3\2--2-----|

both guitars
D|----------------------------------------------------------|
A|----------------------------------------------------------|
F|------------------------------------------------------3---|2x
c|---5\4--5\4--4/5--5\4--5\4--4/5--5\4--5\4--4/5-5\4--4-3---|
G|---5\4--5\4--4/5--5\4--5\4--4/5--5\4--5\4--4/5-5\4--4-1---|
D|---3\2--3\2--2/3--3\2--3\2--2/3--3\2--3\2--2/3-3\2--2-----|

D|-----------------------------------------|
A|-----------------------------------------|
F|-------------------------------------3---|2x
C|--0000-0000-0000-0000-0000-0000-0000-3---|
G|--0000-0000-0000-0000-0000-0000-0000-1---|
D|--2222-2222-2222-2222-2222-2222-2222-----|
    .... .... .... .... .... .... ....

verse 1 2 and 3
D|------|
A|------|
F|------|4x
C|-3\2--|
G|-3\2--|
D|-1\0--|

then
D|------------------------------|
A|------------------------------|
F|--------------------------3---|
C|-3\2--2-2-2--3\2--2--2-3--3---|
G|-3\2--2-2-2--3\2--2--2-3--1---|
D|-1\0--0-0-0--1\0--0--0-1------|
          .

pre chorus
 "when i am weak i am strong"
D|--------------------------------|
A|--------------------------------|
F|---------------------------3----|
C|--3\2----x-2-3\2-------2/3-3----|
G|--3\2----x-2-3\2-------2/3-1----|
D|--1\0----x-0-1\0-------0/1------|
[ Tab from: http://www.guitaretab.com/e/eternal-decision/178094.html ]
chorus
D|-------------------|
A|-------------------|
F|-------------------|
C|---2---3---4---5---|
G|---2---3---4---5---|
D|---0---1---2---3---|

breakdown

guitar I
D|------------|
A|------------|
F|------------|
C|--5\4-4-4---|
G|--5\4-4-4---|
D|--3\2-2-2---|

then guitar II
D|------------|
A|------------|
F|------------|
C|--5\4-4-4---|
G|--5\4-4-4---|
D|--3\2-2-2---|

guitar I slides in
D|--------|
A|--------|
F|--------|
C|--------|
G|--------|
D|--/12\--|

both
D|------------|
A|------------|
F|------------|
C|--5\4-4-4---|
G|--5\4-4-4---|
D|--3\2-2-2---|


D|-------------------------|
A|-------------------------|
F|-------------------------|
C|--3\2-x-3\2-x-3\2-xxxx---|
G|--3\2-x-3\2-x-3\2-xxxx---|
D|--1\0-x-1\0-x-1\0-xxxx---|

D|------------|
A|------------|
F|------------|
C|--5\4-4-4---|
G|--5\4-4-4---|
D|--3\2-2-2---|

D|-----------------|
A|-----------------|
F|-----------------|
C|--2222222222222--|
G|--2222222222222--|
D|--0000000000000--|
    .............

D|-----------------------------------------------------|
A|-----------------------------------------------------|
F|-----------------------------------------------------|
c|---5\4--5\4--4/5--5\4--5\4--4/5--5\4--5\4--4/5-5\4---|
G|---5\4--5\4--4/5--5\4--5\4--4/5--5\4--5\4--4/5-5\4---|
D|---3\2--3\2--2/3--3\2--3\2--2/3--3\2--3\2--2/3-3\2---|

D|----------------------------------------------------------|
A|----------------------------------------------------------|
F|------------------------------------------------------3---|
c|---5\4--5\4--4/5--5\4--5\4--4/5--5\4--5\4--4/5-5\4--4-3---|
G|---5\4--5\4--4/5--5\4--5\4--4/5--5\4--5\4--4/5-5\4--4-1---|
D|---3\2--3\2--2/3--3\2--3\2--2/3--3\2--3\2--2/3-3\2--2-----|

verse 3
pre chorus
chorus

symbol
.=palm mute
x= blunt or palm
/=slide up
\=slide down

i'm sure i'm not 100% accurate its easier to play than to tab out for me, and plus its 
a while since my last tab. feel free to help me and let me know how i did
Related for Strength tab