Song name
# A B C D E F G H I J K L M N O P Q R S T U V W X Y Z

Eternal Lord - I The Deciever tab

lol biggest fail ever
www.myspace.com/dylanparker
|-----------------------------------------------------------\
|-----------------------------------------------------------\
|----------13p10--------------------13/12-------1010101010--\
|------10-------10h12--0~--00-0~-000-----10h12--1010101010--\
|-10h12--13------------0~--00-0~-000------------8888888888--\
|----------------------0~--00-0~-000------------8888888888/1\
                           **    ***         fig own strum patn
|------------------------------------\
|------------------------------------\
|-------------13/12------1010101010--\
|0~--00-0~-000-----10h12-1010101010--\
|0~--00-0~-000-----------8888888888--\
|0~--00-0~-000-----------8888888888--\

|---------------------------------------------------|
|---------------------------------------------------|
|777777777777777777777/10/9/10/9-77~99~11~1212~1414~|
|777777777777777777777/10/9/10/9-77~99~11~1212~1414~|
|555555555555555555555/ 8/7/ 8/7-55~77~99~1010~1212~|
|---------------------------------------------------|
                                 quick ring outs.

|------------------------------------\
|------------------------------------\
|-------------13/12------101010-77---\
|0~--00-0~-000-----10h12-101010-77---\
|0~--00-0~-000-----------888888-55---\
|0~--00-0~-000-----------888888-55---\

|-000000000000000000000000000000000|



yeeeeh ill do rest later 
Tap to rate this tab
# A B C D E F G H I J K L M N O P Q R S T U V W X Y Z