Song name
# A B C D E F G H I J K L M N O P Q R S T U V W X Y Z

Eternal Trap - Unforgotten Memories drum

   This is my bands first song we made you
  can check out the guitar tabs also.


  

         INTRO 2
                                |-------------(x3)------------|
CC|----------------X-------X----|----------------X-------X----|
HH|-----------------------------|-----------------------------|
T2|-oooo----oooo----oooo----oooo|-oooo----oooo----oooo----oooo|
FT|0-------0--------------------|0-------0--------------------|
 S|-----------------------------|-----------------------------|
 B|0-------0-------0-------0----|0-------0-------0-------0----|


      PRE-VERSE
CC|X----x----x----X----x----x----X----x----x----X-X-X-X-X-X-X|
HH|----------------------------------------------------------|
T2|----------------------------------------------------------|(x2)
FT|----------------------------------------------------------|
 S|----------------------------------------------------------|
 B|---------------------------------------------0-0-0-0-0-0-0|

             VERSE 1 & 2

CC|X------X----------X------X--X-X-X-X-X-X-X|
FT|0-oooo-0-oooooooo-0-oooo-0---------------|(x4)
 B|0------0----------0------0--0-0-0-0-0-0-0|

             CHORUS 1 & 2

CC|----------------------x|
T2|-------------------ooo-|
FT|0-----0-----0---ooo----|(x6)
 S|--ooo---ooo---oo-------|
 B|0-----0-----0---ooooooo|

     pre-INTERLUDE

S|---------------------------------ggooooooooooo0o|
B|--o--o--o--o--o--o--o--o--o--o--o--o--o--o--o--o|

     INTERLUDE

CC|---------------------------------X-X------------|
T2|-o-o-o-o-o-oo-o-o--o-----ooooo-------o-o-o-o-o-o|
F1|o-o-o-o-o-o--o-o-oo-ooooo-----o-o-o-o-o-o-o-o-o-|(x4)
 S|------------------------------------------------|
 B|-o-o-o-o-o-o-o-o-o-o-o-o-o-o-o-o-o-o-o-o-o-o-o-o|

         OUTRO
  |------------(x2)--------------|-------------(x2)--------------|
CC|X-------X-------X-------X-----|X-------X-------X-------X-----X|
T2|--oooo----oooo----oooo----oooo|--oooo----oooo----oooo----oooo-| 
FT|------------------------------|-------------------------------|
 S|------------------------------|-------------------------------|
 B|0-------0-------0-------0-----|oooooooooooooooooooooooooooooo-|


























	
Tap to rate this tab
# A B C D E F G H I J K L M N O P Q R S T U V W X Y Z