Song name
# A B C D E F G H I J K L M N O P Q R S T U V W X Y Z

Ethelbert Nevin - The Gondoliers Gondolieri tab

time 6/8

  |     |       |     |       |     |       |     |       |     |
|---------2-5-|-------------|-------------|-------------|-----------0-|
|-3-----3-----|-2-----2-----|-0-2-3-0-2-3-|-------------|-----0-2-3---|
|-------------|-------2-----|-0-----------|-2-----2-----|-0-2---------|
|-0-----4-----|-4-----------|-------------|-4-----------|-------------|
|-------------|-------------|-------------|-------------|-------0-----|
|-------------|-------------|-------------|-------------|-0-----------|

  |     |       |     |       |     |       |     |       |     |
|-------7-----|-5---3-------|-2-----0-----|---------2-5-|-------------|
|-7---------7-|-------------|-2-----------|-3-----3-----|-2-----2-----|
|-------------|-------------|-------0-----|-------------|-------2-----|
|-0-----------|-------------|-------------|-0-----4-----|-4-----------|
|-------6-----|---------0-2-|-0-----------|-------------|-------------|
|-------------|-0-----3-----|-------------|-------------|-------------|

  |     |       |     |       |     |       |     |       |     |
|-------------|-------------|-----------0-|-------7-----|-5-3-2-0---2-|
|-0-2-3-0-2-3-|-------------|-----0-2-3---|-7---------7-|-------------|
|-0-----------|-2-----2-----|-0-2---------|-------------|-------------|
|-------------|-4-----------|-------------|-0-----------|-------------|
|-------------|-------------|-------0-----|-------6-----|-------0-----|
|-------------|-------------|-0-----------|-------------|-0-----------|

  |     |       |     |       |     |       |     |       |     |
|-------------|-------------|---------2-5-|-------------|------------||
|-3-----------|-----0-------|-----0-3-----|-3-----3-----|-3----------||
|-----------2-|---2-------2-|---2---------|-------------|------------||
|-0-----0-4---|-0-----0-4---|-0-----------|-------4-----|-4----------||
|---0-2-------|-------------|-------------|-------5-----|-5----------||
|-------------|-------------|-------------|-------------|------------||
Tap to rate this tab
# A B C D E F G H I J K L M N O P Q R S T U V W X Y Z