Song name
# A B C D E F G H I J K L M N O P Q R S T U V W X Y Z

Etienne Sin - Between You And Me tab

--------------------------------------------------------------------------------

-Between You and Me: Tuning = Drop D

-STRUCTURE AND RIFFS-
IntroRiff-Verse-PreChorus-Chorus-IntroRiff-Verse-PreChorus-Chorus-Breakdown-Chorus-Outro

INTRO RIFF: Tremolo all the way man.

Intro Riff:

E:--------------------------------------------------------------------------|
B:--------------------------------------------------------------------------|
G:--------------------------------------------------------------------------|
D:----0000-12-00-10--0000-14-00-12-0000-15-14-12-14-------------------------|
A:--------------------------------------------------------------------------|
D:--------------------------------------------------------------------------|

E:--------------------------------------------------------------------------|
B:--------------------------------------------------------------------------|
G:--------------------------------------------------------------------------|
D:----0000-12-00-10--0000-17-00-17-0000-17-15-14-15-------------------------|
A:--------------------------------------------------------------------------|
D:--------------------------------------------------------------------------|

E:--------------------------------------------------------------------------|
B:--------------------------------------------------------------------------|
G:--------------------------------------------------------------------------|
D:----0000-12-00-10--0000-14-00-12-0000-15-14-12-14-------------------------|
A:--------------------------------------------------------------------------|
D:--------------------------------------------------------------------------|

E:--------------------------------------------------------------------------|
B:--------------------------------------------------------------------------|
G:--------------------------------------------------------------------------|
D:----0000-17-15-14-15-0000-19-17-15-14-17-15-14-12-------------------------|
A:--------------------------------------------------------------------------|
D:--------------------------------------------------------------------------|


VERSE:

Verse Riffs:

E:--------------------------------------------------------------------------|
B:--------------------------------------------------------------------------|
G:--------------------------------------7--9--7-----------------------------|
D:---------7----10----5---10---9-------------10-----------------------------|
A:----0-0----0-----0----0----0----0-----------------------------------------|
D:--------------------------------------------------------------------------|

E:--------------------------------------------------------------------------|
B:--------------------------------------------------------------------------|
G:--------------------------------------------------------------------------|
D:---------2----5---2-----3-2-3-2-3-2----2----------------------------------|
A:----3-3---3---3-----3------------------3----------------------------------|
D:--------------------------------------------------------------------------|

E:--------------------------------------------------------------------------|
B:--------------------------------------------------------------------------|
G:--------------------------12---12s14--------------------------------------|
D:---------7----10----5------9----------10--12--10--9-----------------------|
A:----0-0----0-----0--------------------------------------------------------|
D:--------------------------------------------------------------------------|

E:--------------------------------------------------------------------------|
B:--------------------------------------------------------------------------|
G:--------------------------------------------------------------------------|
D:---------5----9----5-------7----10---9------------------------------------|
A:----7-7----7----7----5-5----5-----5---------------------------------------|
D:--------------------------------------------------------------------------|

PRE CHORUS:


Pre Chorus Chords and riffs:

       (I)   (IV)   (vi)                      (V)
E:-------------------------------------------------------------------------|
B:-------------------------------------------------------------------------|
G:----5----5-----------RIFF---------------RIFF-----------------------------|
D:----5----5-----7---(10-9---------5----(10s12-10)-------------------------|
A: ----3----3-----7----------10)----5--------------------------------------|
D:----------3-----7-------------------5------------------------------------|


CHORUS:


Chorus Chords:

       (vi)   (V)   (IV)   (ii)  , (VII)
E:---------------------------------------------------|
B:---------------------------------------------------|
G:---------------------------------------------------|
D:---10---9----7-----5-------14----------------------|
A:  ---7----5----3-----0------10---------------------|
D:----7----5----3-----0------10----------------------|


BREAKDOWN: Chuggy thing on open D, simple enough by listening to it.

OUTRO: Metal....Yay........ It's easy.

Outro Riff:

E:--------------------------------------------------------------------------------------|
B:--------------------------------------------------------------------------------------|
G:--------------------------------------------------------------------------------------|
D:--------------------------------------------------------------------------------------|
A:-----1s7--7s6--0--1s7--7s6--0--1s7--7s6--0---------0----------------------------------|
D:-----1s7--7s6--0--1s7--7s6--0--1s7--7s6--0---------1 (repeat this powerchord like 20--| times.
Tap to rate this tab
# A B C D E F G H I J K L M N O P Q R S T U V W X Y Z