Song name
# A B C D E F G H I J K L M N O P Q R S T U V W X Y Z

Eugene Mcguinness - Vela tab

-------------------------------------------------------------------------------
                           Vela  -  Eugene McGuinness
-------------------------------------------------------------------------------
Tabbed by :Gelvsta
E-mail: jgpmjgpm@yahoo.com

Tuning:Standard

Riff 01


e|--------------------------------------------------------------------------|
B|-------------------2---2---------------------------2---2------------------|
G|---2---2---4---4-----------4---4---2---2---4---4-----------4---4----------|
D|--------------------------------------------------------------------------|
A|-0---0---0---0---0---0---0---0--------------------------------------------|
E|---------------------------------2---2---2---2---2---2---2---2------------|

e|--------------------------------------------------------------------------|
B|-------------------2---2---------------------------2---2------------------|
G|---2---2---4---4-----------4---4---2---2---4---4-----------4---4----------|
D|---------------------------------0---0---0---0---0---0---0---0------------|
A|-2---2---2---2---2---2---2---2--------------------------------------------|
E|--------------------------------------------------------------------------|


Riff 02


e|--2---4---5---2------2---4---2------2---4---5---2------2---4---2----------|
B|--2---4---5---2------2---4---2------2---4---5---2------2---4---2----------|
G|---------------------2---4---2-------------------------2---4---2----------|
D|--------------------------------------------------------------------------|
A|--------------------------------------------------------------------------|
E|--2---4---5---2---------------------2---4---5---2-------------------------|

e|--2---4---5---2------2---4---2------------9---7---5---2------2---4---2----|
B|--2---4---5---2------2---4---2------------9---7---5---2------2---4---2----|
G|---------------------2---4---2-------------------------------2---4---2----|
D|--------------------------------------------------------------------------|
A|--------------------------------------------------------------------------|
E|--2---4---5---2---------------------------9---7---5---2-------------------|


Chorus

E          B     D     A7
Won't you turn on the radio
E          B     D     A7
Won't you turn on the radio



Riff 01 0:00 - 0:51

Riff 02 0:52 - 1:16

Chorus  1:18 - 1:30

Riff 01 1:31 - 1:56

Riff 02 1:57 - 2:22

Chorus  2:23 - 2:46

Riff 01 2:47 - ...
Tap to rate this tab
# A B C D E F G H I J K L M N O P Q R S T U V W X Y Z