Song name
# A B C D E F G H I J K L M N O P Q R S T U V W X Y Z

Eugenio Finardi - Uno Di Noi tab

 Uno di Noi (Eugenio Finardi)
_______________________________________________________________________
Tabbed by Masho90



INTRO:

clean guitar
             Mim       Do        Sol   Re       Mim       Do
e|---------|-------------------|--------------|-------------------|
B|----/5-7-|-7/8---------------|----------5-7-|-7/8---------------|
G|---------|-------4---4-5-5/7-|--------------|-------4---4-5-5/7-|
D|---------|-------------------|--------------|-------------------|
A|---------|-------------------|--------------|-------------------|
E|---------|-------------------|--------------|-------------------|
             ^     ^   ^   ^     ^  ^  ^  ^     ^     ^   ^   ^ 

electric guitar
                  Mim       Do        Sol   Re       Mim       Do
e|--------------|-------------------|--------------|-------------------|
B|----------5-7-|-7/8---------------|----------5-7-|-7/8---------------|
G|--------------|-------4---4-5-5/7-|--------------|-------4---4-5-5/7-|
D|--------------|-------------------|--------------|-------------------|
A|--------------|-------------------|--------------|-------------------|
E|--------------|-------------------|--------------|-------------------|
   ^  ^  ^  ^     ^     ^   ^   ^     ^  ^  ^  ^     ^     ^   ^   ^ 

   Sol   Re       Mim       Do        Sol   Re       Mim      Do
e|--------------|-------------------|--------------|------------------|
B|----------5-7-|-7/8---------------|----------5-7-|-7/8--8---8-7-----|
G|--------------|-------4---4-5-5/7-|--------------|--------------7---|
D|--------------|-------------------|--------------|------------------|
A|--------------|-------------------|--------------|------------------|
E|--------------|-------------------|--------------|------------------|
   ^  ^  ^  ^     ^     ^   ^   ^     ^  ^  ^  ^     ^    ^   ^   ^



VERSE:
| Mim  Do  |  Sol  Re  |   (x4)
| Mim  Do  |  Sol  Re  |   (x3)


CHORUS:
| Mim  Do  |  Sol  Re  |   (x4)


VERSE:
| Mim  Do  |  Sol  Re  |   (x4)
| Mim  Do  |  Sol  Re  |   (x3)


CHORUS:
| Mim  Do  |  Sol  Re  |   (x7)


SOLO:
| Mim  Do  |  Sol  Re  |   (x3)


CHORUS:
| Mim  Do  |  Sol  Re  |   (x7)

| Mim  Do  |  Sol  Re  |   (x3)
| Mim |


E se Dio fosse uno di noi
Solo e perso come noi

E se Lui fosse qui
Seduto in fronte a te
Diresti sempre sì
O chiederesti:
"Perché mai ci hai messo qui
Con tutte queste illusioni
E tentazioni e delusioni

E, e, poi perché
E, se, se Dio c'é
E, se, e se c'é

E se Dio fosse uno di noi
Solo e perso come noi
Anche Lui con i Suoi guai
Nessuno che Lo chiama mai...

Io so cosa farei
Lo guarderei dritto negli occhi
E chiederei
Se c'era almeno una ragione
O se é una punizione
Oppure é stato solo un caso
O una disattenzione

E dai, se ci sei
E dai, come mai
E dai, se lo sai

E se Dio fosse Uno di noi
Solo e perso come noi
Anche Lui con i Suoi guai
Nessuno che Lo chiama mai
Solo per dire:"Come stai?"
E invece chiedono attenzioni
Di far miracoli e perdoni
Oppure dare assoluzioni
Nessuno che Lo chiama mai
Solo per dire:"Come stai?"

Tap to rate this tab
 
# A B C D E F G H I J K L M N O P Q R S T U V W X Y Z