Song name
# A B C D E F G H I J K L M N O P Q R S T U V W X Y Z

Eure Muetter - Hakle Feucht tab

Improvements/Questions at bonzyone@hotmail.de

First tab, hope you like it. :)

Standard tuning

Capo on 3rd

Beginning:

e|-----------------|
B|---0---0---0---0-|
G|---0---0---0---0-|
D|-----0-------0---|
A|-3-------3-------|
E|-----------------|

Verse:

Auch wenn das...

e|---------------------------------|
B|---0---0---0---0---0---0---0---0-|
G|---0---0---0---0---0---0---0---0-|
D|---------3---3---0---0---2---2---|
A|-3---3---------------------------|
E|---------------------------------|

Das Thema dieses...

e|---------------------------------|
B|---0---0---0---0---0---0---0---0-|
G|---0---0---0---0---0---0---0---0-|
D|---------3---3---0---0-----------|
A|-3---3-------------------3---3---|
E|---------------------------------|

Bridge:

In Hakle fühlt...

e|---------------------------------|
B|---0---0---0---0---0---0---0---0-|
G|---0---0---0---0---0---0---0---0-|
D|-3---3---3---3---0---0---0---0---|
A|---------------------------------|
E|---------------------------------|

Hakle Feucht hat mir...

e|---------------------------------|
B|---0---0---0---0---0---0---0---0-|
G|---0---0---0---0---0---0---0---0-|
D|-3---3---3---3---5---5---5---5---|
A|---------------------------------|
E|---------------------------------|
Tap to rate this tab
 
# A B C D E F G H I J K L M N O P Q R S T U V W X Y Z