Song name
# A B C D E F G H I J K L M N O P Q R S T U V W X Y Z

Europe - Come Back Home tab

                        Europe - time has come

                     tabulated by: flipmac magnusson

  "this is a very poetic song that you can play for example some one special"

m - palm mute
s - slide
b - bend
r - release
h - hamering on
p - pull of
a - artificial harmonic
~ - vibrato
s --< - slide down the thret bord


intro:

"oh.. oh oh oh oh oh... long for the sailor
and the eavning sky 
long for the raita (?) 
no mather where she fly
long for the stranger
you know so well, so well.."


(aucustic steelstring guitar with reverb and corus I think)
  
|---------0--------|-----------------|-------------------|
|-------0---0------|-----------------|-----0-------------|
|-----5-------5----|-----0-----------|---0-------2-------|
|---2--------------|---4-------0---4-|-2------0----4-----|
|-0-------------0-2|-3-----2-----2---|---------------0-2-|
|------------------|-----------------|-------------------|

|------------------|-----------0---------|
|------------------|-----0-------7-------|
|-----0------------|---0-----------7-----|
|---4--------0---4-|-2-------0-----------|
|-3-----2------2---|-----------------0-2-|
|------------------|---------------------|

|-----------------|-------------------|
|-----------------|-----0-------------|
|-----0-----------|---0-------2-------|
|---4-------0---4-|-2------0----4-----|
|-3-----2-----2---|---------------0-2-|
|-----------------|-------------------|

(quickly change to your electric guitar and step on the dist)


figure 1:
              s-<
|-----------------|----------------------|
|-----------------|----------------------|
|-----------------|----------------------|
|-----------------|-5--4-----------------|
|-5s7--7-7--7-----|-3--2--7-5--5---7777--|
|-3s5--5-5--5-----|-------5-3--3---5555--|

"time has come!..."

figur 2:

|----------------|--------------------|
|----------------|--------------------|
|----------------|--------------------|
|-------------5--|-5--7--7---------7--| play 4 times
|-5-----------3--|-3--5--5---3-2-0-5--|
|-3----3-2-0-----|--------------------|

"oh oh oh oh...for me to come back home.."

"long for the..."

figure 3:

|---------|---------|
|---------|---------|
|---------|---------|
|-5-------|-4---2---| play 4 times
|-3---5---|-2---0---|
|-----3---|---------|

play figure 1 and figure 2 then


"oh oh oh oh for me to come back home"

solo:

      m    m     m               m     m      ~~ m m m m   ~ 
|--------------------------|-------------------------------|
|--------------------------|-------------------------------|
|--------------------------|-------------------------------|
|--5p4--5p4--5p4-----------|--5p4--5p4----5s7----5-4-5-4---|
|-----5----5-----5-2s3-3-5-|-----5----5------------------3-|
|--------------------------|-------------------------------|
  m   m    m                     m    m       ~~~~~~
|--------------------------|-------------------------------|
|--------------------------|-------------------------------|
|--------------------------|----------------5--------------|
|--5p4--5p4--5p4-----------|--5p4--5p4--5s7----------------|
|-3---5----5-----5-2s3-3-5-|-----5----5--------------------|
|--------------------------|-------------------------------|

      m    m     m            a  m  a m      ~~  a a a a  ~ 
|--------------------------|-------------------------------|
|--------------------------|-------------------------------|
|--------------------------|-------------------------------|
|0-5p4--5p4--5p4-----------|--5p4--5p4----5s7----5-4-5-4---|
|-----5----5-----5-2s3-3-5-|-----5----5------------------3-|
|--------------------------|-------------------------------|

  m   m    m                     m    m       ~~~~~~
|--------------------------|-------------------------------|
|--------------------------|-------------------------------|
|--------------------------|----------------5--------------|
|--5p4--5p4--5p4-----------|--5p4--5p4--5s7----------------|
|-3---5----5-----5-2s3-3-5-|-----5----5--------------------|
|--------------------------|-------------------------------|

"wooooaaaaaooooooo..."

          ~~         ~~                ~~          ~~
|-12-14-15---14-12--------|----15-17b19---17-14-------|
|------------------12-----|-17-------------------15---|
|-------------------------|---------------------------|
|-------------------------|---------------------------|
|-------------------------|---------------------------|
|-------------------------|---------------------------|
                                a  
|-12------------------------------------------------|
|----15-12--------------------------15b17-----------|
|----------12s14-12----12-14-14b16---------14-12----|
|-------------------14---------------------------14-|
|---------------------------------------------------|
|---------------------------------------------------|

                         ~~ s-<                                                             
|-------------------------------|
|-------------------------------|
|-14----12-9--------------------|
|----14------9------------------|
|--------------10-10s12-12------|
|-------------------------------|
                                                             ~~
|-----------------------------------------------------------------------|
|----------------------------------13--12----------------------------12-|
|----------11h12-11-------14-11-12---------12-s14-b16-b16-14----12-14---|
|----12-14----------14-12-----------------------------------------------|
|-14--------------------------------------------------------------------|
|-----------------------------------------------------------------------|
                      ~~ s-<                                      ~~ 
|---------------------------------15----19-15-17-14-15-12-14-b15r14-----|
|-13p12-------15b17r15--------s15----15---------------------------------|
|-------14-12-----------------------------------------------------------|
|-----------------------------------------------------------------------|
|-----------------------------------------------------------------------|
|-----------------------------------------------------------------------|

             __________12___________
 1    2      | | | | | | | | | | | |  4 a ~~~ 
|------------5-3-0-------------------------------|
|------------------5-3-0-------------------------|
|------------------------4-2-0--------2----------|
|------------------------------4-2-0-------------|
|------------------------------------------------|
|------------------------------------------------|

1    2                     ~~~                ~~
|--------------------17-19-----19-17----------------|
|-----------17-19-20-----------------20-19-17-------|
|---------------------------------------------------|
|---------------------------------------------------|
|---------------------------------------------------|
|---------------------------------------------------|

1 2                                                     
|----------------------------------|
|-12-13-12----12-13-12-------------|
|----------14----------14-12-15b17-|
|----------------------------------|
|----------------------------------|
|----------------------------------|
                           "now the time has come.."
|----------------------------------------|
|----------------------------------------|
|-16r14-12-14----12----------------------|
|-------------14----14-12----------------|
|-------------------------14-12----------|
|-------------------------------15-12-15-|


play figure 2 a lot of times and try to make a good fade down by lower the volume while you play it. 

end
Tap to rate this tab
# A B C D E F G H I J K L M N O P Q R S T U V W X Y Z