Song name
# A B C D E F G H I J K L M N O P Q R S T U V W X Y Z

Europe - Rock The Night tab

e|--------------------------|-------10-------------------------|
B|--15h17-15-17~---12-------|----------12~-10~-20r-------------|
G|--------------12----12-11-|--9~12----------------------------|
D|--------------------------|----------------------------------|
A|--------------------------|----------------------------------|
E|--------------------------|------------------------19~-------|


                                                                        
e|--0-5h3p5-------------------------|---------------------------------14h|
B|----------5p3p0-------------------|---------------------15h17-15h17~---|
G|----------------4p2p0-4p2p0-------|--4p2p0-------2-4~------------------|
D|----------------------------4p2p0-|--------4p2p0-----------------------|
A|----------------------------------|------------------------------------|
E|----------------------------------|------------------------------------|


                                  
e|--15p14-12-------12-14----------||
B|-----------15h17-------15h17p15~||
G|--------------------------------||
D|--------------------------------||
A|--------------------------------||
E|--------------------------------||
Tap to rate this tab
# A B C D E F G H I J K L M N O P Q R S T U V W X Y Z