Song name
# A B C D E F G H I J K L M N O P Q R S T U V W X Y Z

Europe - Coast To Coast tab

this is just my version. there's room for improvement!

|----------17---------------|
|-15b(17)-----15b(17)--15p12|
|---------------------------|
|---------------------------|
|---------------------------|
|---------------------------|

|----------------|-------------------|-----------------------------|
|-h15--13b(15)r13|-12h13-12-----10-12|-12b(13)r12--12b(13)r12-10---|
|----------------|-----------12------|---------------------------12|
|----------------|-------------------|-----------------------------|
|----------------|-------------------|-----------------------------|
|----------------|-------------------|-----------------------------|

|------------------------|-----------|---------------|----|
|------------------------|-----------|---------------|----|
|-----11b(12)r11--12b(14)|-r12------7|---------------|----|
|-12---------------------|--------9--|--9b(10)-9--7p5|----|
|------------------------|-----------|---------------|-5--|
|------------------------|-----------|---------------|----|

|----------14-17--17b(19)|-17b(19)-17p15-----15-17-19|
|-------15---------------|---------------17----------|
|----14------------------|---------------------------|
|-16---------------------|---------------------------|
|------------------------|---------------------------|
|------------------------|---------------------------|

|-19b(20)--19b(20)-r19-17-15|------------------------|
|---------------------------|-15--19b(20)r19--20b(22)|
|---------------------------|------------------------|
|---------------------------|------------------------|
|---------------------------|------------------------|
|---------------------------|------------------------|
                                                                                
|------17b(19)r17--20b(22)|-r20-------------------------|
|-r20---------------------|-----------------------------|
|-------------------------|---------------------14-16-17|
|-------------------------|------------14-16-17---------|
|-------------------------|------15-17------------------|
|-------------------------|-----------------------------|
        
|----------------------------|-----------------------------|
|-15-------------------------|-15---------------------15-17|
|--------------------16-17-19|---------------14-16-17------|
|-----------16-17-19---------|------14-16-17---------------|
|-----17-19------------------|-----------------------------|
|----------------------------|-----------------------------|
        
|-14-----------------------------------------------17----|
|--------------------------------17-19-20-17-19-20-----20|
|--------------16-17-19-16-17-19-------------------------|
|-----16-17-19-------------------------------------------|
|--------------------------------------------------------|
|--------------------------------------------------------|
                                                                                              

                                                                                              
Tap to rate this tab
 
# A B C D E F G H I J K L M N O P Q R S T U V W X Y Z