Song name
# A B C D E F G H I J K L M N O P Q R S T U V W X Y Z

Europe - Open Your Heart tab

---------------------------------------------------------------------|
---------------14-15-17-17b19-r-15-17b19--20b21--19------------10b12-|
---------14-16--------------------------------------22-21-19v--------|
14-16-17-------------------------------------------------------------|
---------------------------------------------------------------------|
---------------------------------------------------------------------|

7-------------------------------------------------------------|
--10-7h10p7----7-10p7---7----------------------------19-20-22-|
------------10--------9----10p9p7---9-7-----18-19-21----------|
----------------------------------9------21-------------------|
--------------------------------------------------------------|
--------------------------------------------------------------|

------------------21b22--19------------------------14----22-21v--b22-|
22b24-r-19-22b24-------------22--------10----15-------15-------------|
-----------------------------------7------11----16-------------------|
---------------------------------9---9-------------------------------|
---------------------------------------------------------------------|
---------------------------------------------------------------------|
Tap to rate this tab
 
# A B C D E F G H I J K L M N O P Q R S T U V W X Y Z