Song name
# A B C D E F G H I J K L M N O P Q R S T U V W X Y Z

Europe - Towers Callin tab

E|-----------------------------------------------|
B|-----------------------------------------------|
G|-----------------------------------------------|
D|------4h5h7-7b(9)--10b(12)-s7-9p7--------------|
A|4h5h7------------------------------10b(12)-r-10|
E|-----------------------------------------------|

E|----------------------------------------------15p14h17p15|
B|10b(12)--r-p8p7h10p8--15h17--15-17-17b(19)-17------------|
G|---------------------------------------------------------|
D|---------------------------------------------------------|
A|---------------------------------------------------------|
E|---------------------------------------------------------|

E|17b(19)--15-----20b(22)-20b(22)--20-19h20-19|
B|------------17------------------------------|
G|--------------------------------------------|
D|--------------------------------------------|
A|--------------------------------------------|
E|--------------------------------------------|

E|---------12-14-15-----15----19-b(20)-r-15-17-----------------------|
B|15b(17)------------15----15------------------15-12-b(14)-r---------|
G|-----------------------------------------------------------12-14---|
D|-----------------------------------------------------------------12|
A|-------------------------------------------------------------------|
E|-------------------------------------------------------------------|

E|---------------------------17------------------|
B|------------------------19----20b(22)--20p19-20|
G|---------------------19------------------------|
D|------------------19---------------------------|
A|14-b(15)-r-10----------------------------------|
E|--------------10-------------------------------|

E|---15-17-17b(19)-r-p15-p14-17-15---------|
B|17--------------------------------15b(17)|
G|-----------------------------------------|
D|-----------------------------------------|
A|-----------------------------------------|
E|-----------------------------------------|

E|12----12-15-12-------12---------12---------------------------------|
B|---15----------15-15----15b(17)----15b(17)-r-12----12-15---------12|
G|------------------------------------------------14-------14b(16)---|
D|-------------------------------------------------------------------|
A|-------------------------------------------------------------------|
E|-------------------------------------------------------------------|

E|--------------------------------------------------------------|
B|--------------------------------------------13b(15)-r-12h13p12|
G|14b(16)-r-p12----14----12--12-14b(16)-12-14-------------------|
D|--------------14----14----------------------------------------|
A|--------------------------------------------------------------|
E|--------------------------------------------------------------|

E|---12h15p12------------------------------------|
B|15----------15p12----12h15p12----15----12------|
G|------------------14----------14----14----14---|
D|---------------------------------------------14|
A|-----------------------------------------------|
E|-----------------------------------------------|

E|--------------------------------------------|
B|--------------------------------------------|
G|12h14p12----12----------------14p12----12---|
D|---------14----14p12h14-11h12-------14----14|
A|--------------------------------------------|
E|--------------------------------------------|
Tap to rate this tab
# A B C D E F G H I J K L M N O P Q R S T U V W X Y Z