Song name
# A B C D E F G H I J K L M N O P Q R S T U V W X Y Z

Europe - Aphasia Part 1 tab

e|-------------------17--20--18---17-------------------------|
B|------------------------------------20--20-----------------|
G|-------19------17------------------------------------------|
D|---17------17----------------------------------------------|
A|-----------------------------------------------------------|
E|-----------------------------------------------------------|

e|-------------------17--20--18--17--------------------------|
B|-----------------------------------18----------------------|
G|-------19------17----------------------17------------------|
D|---17------17------------------------------20--19----------|
A|-----------------------------------------------------------|
E|-----------------------------------------------------------|

e|-------------------17--20--18---17-------------------------|
B|------------------------------------20--20-----------------|
G|-------19------17------------------------------------------|
D|---17------17----------------------------------------------|
A|-----------------------------------------------------------|
E|-----------------------------------------------------------|

e|---18--17--------------17--17--18--20--20------------------|
B|-----------18------18--------------------------------------|
G|---------------17------------------------------------------|
D|-----------------------------------------------------------|
A|-----------------------------------------------------------|
E|-----------------------------------------------------------|

e|-------------------17--20--18---17-------------------------|
B|------------------------------------20--20-----------------|
G|-------19------17------------------------------------------|
D|---17------17----------------------------------------------|
A|-----------------------------------------------------------|
E|-----------------------------------------------------------|

e|-------------------17--20--18--17--------------------------|
B|-----------------------------------18----------------------|
G|-------19------17----------------------17------------------|
D|---17------17------------------------------20--19----------|
A|-----------------------------------------------------------|
E|-----------------------------------------------------------|

e|-------------------17--20--18---17-------------------------|
B|------------------------------------20--20-----------------|
G|-------19------17------------------------------------------|
D|---17------17----------------------------------------------|
A|-----------------------------------------------------------|
E|-----------------------------------------------------------|

e|---18--17--------------17--17--18--20--20------------------|
B|-----------18------18--------------------------------------|
G|---------------17------------------------------------------|
D|-----------------------------------------------------------|
A|-----------------------------------------------------------|
E|-----------------------------------------------------------|

e|-----------------------------3-----------------------------|
B|------------3-----3--4----------4--6--4--3--4--3-----------|
G|---5-----5-----5----------------------------------5--------|
D|------5----------------------------------------------------|
A|-----------------------------------------------------------|
E|-----------------------------------------------------------|

e|------------------------------------------------------------------|
B|------------------------------------------------------------------|
G|---------------3--------------------------------------------------|
D|---5--6----5-6----5--5--6-----6--5---5-6-5---3--5--3-----5--------|
A|------------------------------------------------------6-----6--5--|
E|------------------------------------------------------------------|


e|-----------------------------3-----------------------------|
B|------------3-----3--4----------4--6--4--3--4--3-----------|
G|---5-----5-----5----------------------------------5--------|
D|------5----------------------------------------------------|
A|-----------------------------------------------------------|
E|-----------------------------------------------------------|

e|------------------------------------------------------------------|
B|------------------------------------------------------------------|
G|---------------3--------------------------------------------------|
D|---5--6----5-6----5--5--6-----6--5---5-6-5---3--5--3-----5--------|
A|------------------------------------------------------6-----6--5--|
E|------------------------------------------------------------------|

e|-----------------------------3-----------------------------|
B|------------3-----3--4----------4--6--4--3--4--3-----------|
G|---5-----5-----5----------------------------------5--------|
D|------5----------------------------------------------------|
A|-----------------------------------------------------------|
E|-----------------------------------------------------------|

e|------------------------------------------------------------------|
B|------------------------------------------------------------------|
G|---------------3--------------------------------------------------|
D|---5--6----5-6----5--5--6-----6--5---5-6-5---3--5--3-----5--------|
A|------------------------------------------------------6-----6--5--|
E|------------------------------------------------------------------|

e|-----------------------------3-----------------------------|
B|------------3-----3--4----------4--6--4--3--4--3-----------|
G|---5-----5-----5----------------------------------5--------|
D|------5----------------------------------------------------|
A|-----------------------------------------------------------|
E|-----------------------------------------------------------|

e|-----------------------------------------------------------------------------|
B|-----------------------------------------------------------------------------|
G|---------------3-------------------------------------------------------------|
D|---5--6----5-6----5--5--6-----6--5---5-6-5---3--5--3-----5-------------------|
A|------------------------------------------------------6-----6--5-----1--2--3-|
E|------------------------------------------------------------------3----------|

e|-----------------------------------------------------------|
B|-----------------------------------------------------------|
G|-----------------------------------------------------------|
D|------1--0--1----------------------------------------------|
A|---3--------------1--2--3-----------1--0-------------------|
E|---------------------------3-----3--------1---3---4---6----|

 This song is given from me to elias stasi to his birthday,
 I was up from 22.00 to 06.30 doing this .
 
 HAPPY BIRTHDAY !
Tap to rate this tab
# A B C D E F G H I J K L M N O P Q R S T U V W X Y Z