Song name
# A B C D E F G H I J K L M N O P Q R S T U V W X Y Z

Europe - Superstitious tab

EUROPE  SUPERSTITIOUS (guitar solo)
as tabbed by Giacomo Pasquali
www.giacomopasquali.it
www.myspace.com/giacomopasquali


s     slide

h     hammer-on

p     pull-off

b     bending

v     vibrato

*     harmonic


e|-----------------------------------------------------------------------|
B|-10-11-1311h13p11p10--------------10-11-13-----13b15b13p11-13---------|
G|----------------------12v----10-12----------10v----------------10v-----|
D|-----------------------------------------------------------------------|
A|-----------------------------------------------------------------------|
E|-----------------------------------------------------------------------|

e|------15-----18b20v-18p17-18p17----------------------------------------|
B|---------13v--------------------18-------------------------------------|
G|-----------------------------------17v---15b17v-15p14-15b17b15v--------|
D|-7s12------------------------------------------------------------------|
A|-----------------------------------------------------------------------|
E|-----------------------------------------------------------------------|

e|-----------------------------------------------------------------------|
B|-17b18v-17b18v---------------------------------------------------------|
G|---------------17p15p14h15v--14h15p14----------------------------------|
D|--------------------------------------17-15-14v------------------------|
A|-----------------------------------------------------------------------|
E|-----------------------------------------------------------------------|

e|-----------------------------------------------------------------------|
B|-------------------------------17-18-20--20b22-20b22b20p18-20v--------|
G|----------------------16-17-19-----------------------------------------|
D|-------------15-17-19--------------------------------------------------|
A|-19-15-17-19-----------------------------------------------------------|
E|-----------------------------------------------------------------------|

e|-17-18-20--18h20p18p17------------17-18-20-------20b22v----------------|
B|-----------------------20v--18-20----------18v-------------------------|
G|-----------------------------------------------------------------------|
D|-----------------------------------------------------------------------|
A|-----------------------------------------------------------------------|
E|-----------------------------------------------------------------------|

e|-20-18-17-20-18-17-----18-17----------------17-18-20-18-17-------------|
B|--------------------20-------20-18-17-18-20---------------20-18-17-----|
G|-----------------------------------------------------------------------|
D|-----------------------------------------------------------------------|
A|-----------------------------------------------------------------------|
E|-----------------------------------------------------------------------|

e|-----------------------------------------------------------------------|
B|-20-18-17--------------------------------------------------------------|
G|----------19-17-16-19-17-16--------------------------------------------|
D|----------------------------19-17-15-19-17-15--------------------------|
A|----------------------------------------------19-17-19-20--------------|
E|-----------------------------------------------------------------------|
e|--------------------------------------15-17-18-15-17-18---18s20v-------|
B|--------------------15-17-18-15-17-18----------------------------------|
G|-----------------------------------------------------------------------|
D|-17-19-20-17-19-20-----------------------------------------------------|
A|-----------------------------------------------------------------------|
E|-----------------------------------------------------------------------|

e|-18p17-18p17---------22b25v-22b25v-18p17-18v---------------------------|
B|-------------18--------------------------------------------------------|
G|----------------17v--------------------------14h15p14------------------|
D|------------------------------------------------------17-15-14v--------|
A|-----------------------------------------------------------------------|
E|-----------------------------------------------------------------------|

e|---------------------------------------------------------------------||
B|-------------------------------17-18-20--20b22-20b22b20p18-20v------||
G|----------------------16-17-19---------------------------------------||
D|-------------15-17-19-----------------------------------------------3||
A|-19-15-17-19--------------------------------------------------------3||
E|----------------------------------------------------------------///-1||
Tap to rate this tab
# A B C D E F G H I J K L M N O P Q R S T U V W X Y Z