Song name
# A B C D E F G H I J K L M N O P Q R S T U V W X Y Z

Europe - Rock The Night tab

Europe - Rock The Night

Tabbed by: Peter Gleeson, August 2011


Hello, I realised there wasn't much on here in terms of tabs for this song, so I had a
go at producing one myself. I've included the lyrics to the first verse to help with the
timing and all that - but if they don't help then just pretend they're not there.

There are many references to "divebombing". My guitar doesn't have a floating bridge so
I haven't been able to be at all precise. Most of the time the note you will need to
strike is either the 15th fret or 17th fret on the high e string.

As for the lead guitar, I tabbed it by ear, and it may not be perfect. I saw there was
already a tab on here for the first solo (thanks to Daniele96), and I tweaked it slightly
and used it to get me started. If anyone has any better tabs for the solos, please put 
them up on here!

Hopefully the layout is clear enough, look out for the many ^ symbols here and there if
there is any confusion.


Intro

e|--------------------------------------------|
B|--------------------------------------------|
G|--------------------------------------------|
D|-9-9-------5-7--------9-9-------5-7---------|
A|-7-7--4-5--3-5--5-7---7-7--4-5--3-5--5-7----|
E|------2-3-------3-5--------2-3-------3-5----|

                        ^insert crazy divebomb here

                                ^"Oo-ohh yeeahh!!"

e|-----------------------------------------------|
B|-----------------------------------------------|
G|-----------------------------------------------|
D|-9-9-------5-7--------9-9-------5-7------------|
A|-7-7--4-5--3-5--5-7---7-7--4-5--3-5--5-7--9-10-|
E|------2-3-------3-5--------2-3-------3-5--7-8--|

                                              ^again, insert divebomb


Verse

e|----------------------------------------------|
B|----------------------------------------------|
G|----------------------------------------------|
D|-7-9-----------------------------7-9----------|
A|-5-7-----------------------------5-7----------|
E|----------------------------------------------|
       ^                              ^
      "I've gone through changes!"    "I've gone through pain!"


e|--------------------------------------------------------|
B|--------------------------------------------------------|
G|--------------------------------------------------------|
D|-7-5-5-----------9-------------------------7-9----------|
A|-5-3-3-5-5-7-5-6-7-------------------------5-7----------|
E|-------3-3-5--------------------------------------------|
                 ^
    ^            Divebomb again!
    "But it's not         ^
    enough reason         "I know the feeling!"
    for me to go
    insane!"


e|------------------------------------------------------|
B|------------------------------------------------------|
G|------------------------------------------------------|
D|--------------------7-5-5-----------------------------|
A|--------------------5-3-3-5-5-7-----------------------|
E|--------------------------3-3-5-----------------------|


   ^                     ^
"Just when it grows"     "Something something
                          from my head to my toes!"


e|-----------------------------------------------------|
B|-----------------------------------------------------|
G|-----------------------------------------------------|
D|----------7-7--9-9---------------7-7--4-4-4-4-2-4----|
A|-----5-5--5-5--7-7----------5-5--5-5--2-2-2-2-0-2----|
E|-0-2-3-3----------------0-2-3-3----------------------|

    ^                         ^
    "You known it ain't easy  "You know it ain't easy
     runnin' out of thrills"  when you don't know what
                               you want"


e|--------------------|
B|--------------------|
G|--------------------|
D|-4-4-4-4-2-4---5--7-|
A|-2-2-2-2-0-2---3--5-|
E|--------------------|

  ^              ^
  "What do       "Ohhh you
   you want!"    want to..."


Chorus

e|--------------------------------------------|
B|--------------------------------------------|
G|--------------------------------------------|
D|-9-9-------5-7--------9-9-------5-7---------|
A|-7-7--4-5--3-5--5-7---7-7--4-5--3-5--5-7----|
E|------2-3-------3-5--------2-3-------3-5----|


"ROCK NOW ROCK THE NIGHT!" etc.


e|-----------------------------------------------|
B|-----------------------------------------------|
G|-----------------------------------------------|
D|-9-9-------5-7--------9-9-------5-7------------|
A|-7-7--4-5--3-5--5-7---7-7--4-5--3-5--5-7--9-10-|
E|------2-3-------3-5--------2-3-------3-5--7-8--|

                                            ^"Oohh-oh-oh-oohh!"


Verse 2 (exactly the same guitar as verse 1)


Chorus



then...


e|-----------------------------------------------|
B|-----------------------------------------------|
G|-----------------------------------------------|
D|-7-9/---------------------9--------------------|
A|-5-7/---------------------7--------------------|
E|-----------------------------------------------|

     ^                       ^
"ROCK NOW ROCK THE NIGHT!"   "ROCK NOW ROCK THE NIGHT!"

                       ^Divebomb!               ^Lead: (Use trem. bar)
                                            G|14br-12-14-14-12-14-14-12~


e|-----------------------------------------------------|
B|-----------------------------------------------------|
G|-----------------------------------------------------|
D|-9------------------------------9--------------------|
A|-7------------------------------7--------------------|
E|-----------------------------------------------------|
      ^"ROCK NOW ROCK THE NIGHT!"  ^"ROCK NOW ROCK THE NIGHT!"

                              ^Lead: (tap the 21st fret and bend string
                                     with tapping finger)

                                         t
                                   G|-9-21br-~ (use trem. bar)


e|---------------------------|
B|---------------------------|
G|---------------------------|
D|-9-9-9-9----9-9-9-9--------|
A|-7-7-7-7----7-7-7-7--------|
E|---------------------------|
                       ^
                      "ROCK IT!!"


Solo:


e|-----------------------------------10------------------------|
B|--15b(17)-15b(17)~--12----------------12~-10-22b(24)~--------|
G|------------------12--12-11--9~-/12--------------------------|
D|---------------------------12--------------------------------|
A|-------------------------------------------------------------|
E|-------------------------------------------------------------|


      t     t     t     t     t       t     t
e|--0-5p3p5---------------------------------------------------------------|
B|----------5p3p0----------------------------------------15b(17)-15b(17)~-|
G|----------------4p2p0-4p2p0---------4p2p0-------2-4~--------------------|
D|----------------------------4p2p0---------4p2p0-------------------------|
A|------------------------------------------------------------------------|
E|------------------------------------------------------------------------|


e|-12-15-14-12--15-14-12----12----------12-15p14p12-15p14p12-|
B|-----------------------15----15b(17)~----------------------|
G|-----------------------------------------------------------|
D|-----------------------------------------------------------|
A|-----------------------------------------------------------|
E|-----------------------------------------------------------|

                                        ^ From here on, it's anybody's guess
                                          what he actually plays.

e|------------------------------------------------------------|
B|-15-13-12---------------------------------------------------|
G|----------14-12-11-9-7--------------------------------------|
D|-----------------------10-9-7-----------------7h9h10--------|
A|------------------------------10-9-7~---7h9h10------9h10h12-|
E|------------------------------------------------------------|


e|--------------------------------------------------------12-14-15-17-17b~-|
B|-----------------------------------------------12-13-15------------------|
G|------------------------11h12p11------11-12-14---------------------------|
D|9h10h12--------10h12h14---------12h14------------------------------------|
A|-------10h12h14----------------------------------------------------------|
E|-------------------------------------------------------------------------|

                                        ^tremolo pick until end of solo




e|-----------------------------------------------------|
B|-----------------------------------------------------|
G|-----------------------------------------------------|
D|----------7-7--9-9---------------7-7--4-4-4-4-2-4----|
A|-----5-5--5-5--7-7----------5-5--5-5--2-2-2-2-0-2----|
E|-0-2-3-3----------------0-2-3-3----------------------|

    ^                         ^
  "Oh you known it ain't easy  "You know it ain't easy
  runnin' out of thrills"      when you don't know what
                               you want"


e|--------------------|
B|--------------------|
G|--------------------|
D|-4-4-4-4-2-4---5--7-|
A|-2-2-2-2-0-2---3--5-|
E|--------------------|

  ^              ^
  "What do       "Ohhh you
   you want!"    want to..."


Chorus

e|--------------------------------------------|
B|--------------------------------------------|
G|--------------------------------------------|
D|-9-9-------5-7--------9-9-------5-7---------|
A|-7-7--4-5--3-5--5-7---7-7--4-5--3-5--5-7----|
E|------2-3-------3-5--------2-3-------3-5----|


"ROCK NOW ROCK THE NIGHT!" etc.


e|-----------------------------------------------|
B|-----------------------------------------------|
G|-----------------------------------------------|
D|-9-9-------5-7--------9-9-------5-7------------|
A|-7-7--4-5--3-5--5-7---7-7--4-5--3-5--5-7--9-10-|
E|------2-3-------3-5--------2-3-------3-5--7-8--|



Solo 2


Backing guitar for solo:


e|------------------|
B|------------------|
G|------------------|
D|-9-9-9-9--7-7-7-7-|
A|-7-7-7-7--5-5-5-5-|
E|------------------| over and over


Lead:

e|--------------------------------------------------------------------|
B|--------------------------------------------------------------------|
G|----11-12~--11------------------------------------------------------|
D|-14-----------14-12~---12-14-9~-9-12-14-12h14p12--12----------------|
A|------------------------------------------------15--15-14-12--------|
E|-------------------------------------------------------------15-12~-|



e|---------------------------------------------------------------------|
B|------------------------------------------------------15b(17)~-12h15-|
G|-/9/12~/9~-9-11-12-11-9-7-9-11-9-7--7--------------------------------|
D|----------------------------------10-10-9-7--7-----------------------|
A|-------------------------------------------10-10-9-7~----------------|
E|---------------------------------------------------------------------|
             ^
             Just go mad here

e|-12-----------------------------|
B|----15-12-----------------------|
G|----------14b(16)r-12-14b(16)---|
D|--------------------------------|
A|--------------------------------|
E|--------------------------------|
                                ^and another divebomb!


Then the song ends with the chorus fading out slowly.
Tap to rate this tab
# A B C D E F G H I J K L M N O P Q R S T U V W X Y Z