Song name
# A B C D E F G H I J K L M N O P Q R S T U V W X Y Z

Europe - Not Supposed To Sing The Blues tab

---------------------------------------------------------------------------|
---------------------------------------------------------------------------|
---7s--9--x-x--9-----------------------------------------------------------|
---7s--9--x-x--9-----7s--9--x--5s--7--x-x--5---2--x--x--2------------------|
---5s--7--x-x--7-----7s--9--x--5s--7--x-x--5---2--x--x--2------------------|
---------------------5s--7--x--3s--5--x-x--3---0--x--x--0---0-3-0-5--3-----|



--------------------------------------------------------------------------------|
--------------------------------------------------------------------------------|
---7s--9--x-x--9--------------------------------2--2--2------2--2--2------------|
---7s--9--x-x--9-----7s--9--x--5s--7--x-x--5----2--2--2------2--2--2------------|
---5s--7--x-x--7-----7s--9--x--5s--7--x-x--5----0--0--0------0--0--0------------|
---------------------5s--7--x--3s--5--x-x--3--------------3------------3v-0-----|
Tap to rate this tab
# A B C D E F G H I J K L M N O P Q R S T U V W X Y Z