Guitaretab - guitar tabs
Song name
# A B C D E F G H I J K L M N O P Q R S T U V W X Y Z

Europe - Halfway To Heaven tab

play this part with tremolo


E: -----------------0-0-0--3-3-3-3----|
B: -3-3-3--2-2-2-2--0-0-0--3-3-3-3----|
G: -2-2-2--2-2-2-2--------------------|
D: -----------------------------------|
A: -----------------------------------|
E: -----------------------------------|


intro-solo


E: -14b--h17-12~---15-15p14p12------14-17---17h19p17~---------|
B: ----------------------------15-----------------------------|
G: -----------------------------------------------------------|
D: -----------------------------------------------------------|
A: -----------------------------------------------------------|
E: -----------------------------------------------------------|


fastest part
[ Tab from: http://www.guitaretab.com/e/europe/45828.html ]
E: ----17--17----19-17-14-12-----14-12-------------------------|
B: -17b--17--19--------------15--------15----------------------|
G: ------------------------------------------------------------|
D: ------------------------------------------------------------|
A: ------------------------------------------------------------|
E: ------------------------------------------------------------|

E: -14b--h17-12~---15-15p14p12--------------17----------------|
B: ----------------------------17-15----/15----15~------------|
G: -----------------------------------------------------------|
D: -----------------------------------------------------------|
A: -----------------------------------------------------------|
E: -----------------------------------------------------------|
Related for Halfway To Heaven tab
×
Best way to learn
"Halfway To Heaven"