Guitaretab - guitar tabs
Song name
# A B C D E F G H I J K L M N O P Q R S T U V W X Y Z

Europe - Spirit Of The Underdog tab

SPIRIT OF THE UNDERDOG
Europe. Start From The Dark 2004


Symboles:

b   = Bend

v   = Vibration

vv  = Vide vibration

___ = keep th tone for some time

S   = Slide

h   = Harmonica


Intro:

E-------------------------------------------| E-------------------------------------------|
B-------------------------------------------| B-------------------------------------------|
G--6-6-6--6-6-6--6-6-6--6-6-6---------------| G--6-6-6--6-6-6--6-6-6--6-6-6---------------|
D--6-6-6--6-6-6--6-6-6--6-6-6---------------| D--6-6-6--6-6-6--6-6-6--6-6-6---------------|
A--4-4-4--4-4-4-4-4-4--4-4-4-6-4-6--------| A--4-4-4--4-4-4-4-4-4--4-4-4--------------|
E-------------------------------------------| E-------------------------------------------|


Verse:
 Seen you round I know your face,               Watch you trie to grow up with grace
E-------------------------------------------|  -------------------------------------------|
B-------------------------------------------|  --------------------------------7----------|              
G---------6-----------------4---------------|  ---------------------------7---------------|  
D-----6-------------------------------------|  -----------6------------5------------------|  
A-4--------------------6--------------------|  -------8-----------------------------------|  
E-----------------4-------------------------|  --6----------------------------------------|  
 Seen That heart, out on your sleeve            Like it so much life,      
E-------------------------------------------|  -------------------------------------------|  
B-------------------------------------------|  -------------------------------------------|  
G----------6------------------4-------------|  -------------------------------------------|  
D------6------------------------------------|  -----------------6-----------7--------------|  
A-4-----------------------6-----------------|  -------------8------------7----------------|  
E----------------------4--------------------|  ---------6-------------5-------------------|  
 you dying to feel                             Dying to feel
E-------------------------------------------|  -------------------------------------------|  
B-------------------------------------------|  -------------------------------------------|  
G-------------------------------------------|  -------------------------------------------|  
D-----------------------4--------4----------|  ----------------4s-------------------------|  
A--------------------6--------7-------------|  -------------7-----------------------------|  
E-----------------4--------4----------------|  ----------4--------------------------------| 
 

Chorse:
        Cuse if you got to steal,              you got to steal the show
E-------------------------------------------|  -------------------------------------------|  
B-------------------------------------------|  -------------------------------------------|  
G--6-6-6--------6---6---6---------8-8-8-----|  --------8---8----8-------------------------|  
D--6-6-6--------6---6---6---------8-8-8-----|  --------8---8----8-------------------------|  
A--4-4-4--------4---4---4---------6-6-6-----|  --------6---6----6-------------------------|  
E-------------------------------------------|  -------------------------------------------|  
               I`ts the spirit of the underdog
E-------------------------------------------|  
B-------------------------------------------|  
G-9-9-9--9-9-9-------------------------4---4|  
D-9-9-9--9-9-9-----------2-2-2---------4---2|  
A-7-7-7--7-7-7-S---------2-2-2---------2---2|  
E------------------------0-0-0--------------|  






[ Tab from: http://www.guitaretab.com/e/europe/60701.html ]
        And if you got to breake,              you got to breake them all
E-------------------------------------------|  -------------------------------------------|  
B-------------------------------------------|  -------------------------------------------|  
G--6-6-6--------6---6---6---------8-8-8-----|  --------8---8----8-------------------------|  
D--6-6-6--------6---6---6---------8-8-8-----|  --------8---8----8-------------------------|  
A--4-4-4--------4---4---4---------6-6-6-----|  --------6---6----6-------------------------|  
E-------------------------------------------|  -------------------------------------------|  
              I`ts the spirit of the underdog
E-------------------------------------------|  
B-------------------------------------------|  
G-9-9-9--9-9-9-------------------------4---4|  Then Play the verse and chorse one more time
D-9-9-9--9-9-9-----------2-2-2---------4---2|  
A-7-7-7--7-7-7-S---------2-2-2---------2---2|  
E------------------------0-0-0--------------|  
Then Play the verse and chorse one more time

Then play this riff before the solo:

E-------------------------------------------| -------------------------------------------|
B-------------------------------------------| -------------------------------------------|
G-------------------------------------------| -------------------------------------------|
D-------------------------------------------| -------------------------------------------|
A--4--6--4-6--7--6-4-4--4--6v--4-46--4-| -6--7-6-4-4--4--5v--4-------------------|
E-------------------------------------------| -------------------------------------------|


E-------------------------------------------| -------------------------------------------|
B-------------------------------------------| -------------------------------------------|
G-------------------------------------------| -------------------------------------------|
D-------------------------------------------| -------------------------------------------|
A--4--6--4-6--7--6-4-4--4--6v--4-46--4-| -6--7-6-4-4--4--------------------------|
E-------------------------------------------| -------------------------------------------|

Solo:

E-------------------------------------------|------------------12-14-16-17-16-14--------|
B-10b-9-7-5----10b-9-7-5---10b-9--5-7-9-10-|-9-7h--5----10b-9--------------------------|
G-------------------------------------------|-------------------------------------------|
D-------------------------------------------|-------------------------------------------|
A-------------------------------------------|-------------------------------------------|
E-------------------------------------------|-------------------------------------------|

E---17b-16-14-12-17b-16-12-14-16-17-16-14-14| -12-11vv_________--------------------------|
B-------------------------------------------| -------------------10b---------------------|
G-------------------------------------------| -------------------------------------------|
D-------------------------------------------| -----------------------11b-----------------|
A-------------------------------------------| -------------------------------------------|
E-------------------------------------------| -------------------------------------------|

The play th chorse twice. 
But the second time you play the chorse you you play this along (With wha-wha somewear):
				       
E12v10b-9v------------------------9-10----| -12-14-16-17b-16-14-12v--------------------|
B-------------------------------------------| -------------------------------------------|
G-------------------------------------------| -------------------------------------------|
D----------------------11v-11b-9------------| -------------------------------------------|
A--------------7v-7b------------------------| -------------------------------------------|
E-------------------------------------------| -------------------------------------------|

Then Finish the song with:

E-------------------------------------------| -------------------------------------------|
B-------------------------------------------| -------------------------------------------|
G-------------------------------------------| -------------------------------------------|
D-------------------------------------------| -------------------------------------------|
A--4--6--4-6--7--6-4-4--4--6v--4-4-6--4| -6--7-6-4-4--4--5v--4-------------------|
E-------------------------------------------| -------------------------------------------|


E-------------------------------------------| -------------------------------------------|
B-------------------------------------------| -------------------------------------------|
G-------------------------------------------| -------------------------------------------|
D-------------------------------------------| -------------------------------------------|
A--4--6--4-6--7--6-4-4--4--6v--4-4-6--4- -6--7-6-4-4--45v--4--------------------|
E-------------------------------------------| -------------------------------------------|
If you have some corrections, pleas send it to: alek_ne@hotmail.com
Related for Spirit Of The Underdog tab