Song name
# A B C D E F G H I J K L M N O P Q R S T U V W X Y Z

Europe - In The Future To Come tab


                   europe
                in the future to come intro
                (thempest)


e|----------------------------------------|
b|----------------------------------------|
g|-------------0-1-0--0-------------------|2x
d|---0-1---3--------3---3-1-0-------------|
a|-3-----3---3----------------3v--1-1-0-0-|
e|----------------------------------------|

and then...
|----------------|
|----------------|
|-5------------5-|
|-5---6--8--5--5-|
|-3---6--8--5--3-|
|-----4--6--3----|
Tap to rate this tab
# A B C D E F G H I J K L M N O P Q R S T U V W X Y Z