Song name
# A B C D E F G H I J K L M N O P Q R S T U V W X Y Z

Europe - Always The Pretenders tab

When I looked up tabs for this song, I was suprised that there were only Guitar Pro 
so I decided to tab it myself, as it's not too hard.

Tuning: Standard
Artist: Europe
Album: Secret Society (2006)
Song: Always The Pretenders
Tabbed by: Tiggy Tiggemann (tigwasabi@hotmail.com; any complaints, corrections or the 
e-mailed here please)

Here it is:

Intro
Guitar 1
e(---9---9---9---12---12------9----9----9----12----12---)
b(-9---9---9---9----9----9-10---10---10---10----10----9-)
g(------------------------------------------------------)
D(------------------------------------------------------)
A(------------------------------------------------------)
E(------------------------------------------------------)

Guitar 2 (played on a keyboard)
e(---21---21---21---24---24------21----21----21----24----24---)
b(-9----9----9----9----9----9-10----10----10----10----10----9-)
g(------------------------------------------------------------)
D(------------------------------------------------------------)
A(------------------------------------------------------------)
E(------------------------------------------------------------)

Verse
Guitar 1
e(---------------------------------)
b(---------------------------------)
g(---------------------------------)
D(-------------1414-1111-x-x-11-12-)
A(-111111-1414-1212-9-9--x-x-9--10-)
E(-9-9-9--1212-----------x-x-------)

Guitar 2
e(--------------------------------)
b(--------------------------------)
g(-------------1414-1111----11-12-)
D(-111111-1414--------------------)
A(-------------1212-9-9-----9--10-)
E(-9-9-9--1212--------------------)

Chorus lead-in
Both guitars
e(----------------------------)
b(----------------------------)
g(-1111-1111-1111-1111-11--11-)
D(-1111-1111-1111-1111-11--11-)
A(-9-9--9-9--9-9--9-9--9---9--)
E(----------------------------)

Chorus
Both Guitars
e(--------------------------)
b(--------------------------)
g(-------11-14--------14-11-)
D(-11-14-11-14--11-14-14-11-)
A(-11-14-9--12--11-14-12-9--)
E(-9--12--------9--12-------)

Thats it. The Intro kicks in a little later, after the solo, which, unfortunately, I do 
know. Listen to the song for the order/timing.

P.S. I'm a little unsure on the chorus. I will correct myself if it's wrong.

Have fun
Tap to rate this tab
# A B C D E F G H I J K L M N O P Q R S T U V W X Y Z