Song name
# A B C D E F G H I J K L M N O P Q R S T U V W X Y Z

Eurythmics - When Tomorrow Comes tab

-------------------------------------------------------------------------------
		   WHEN TOMORROW COMES - EURYTHMICS
-------------------------------------------------------------------------------
Tabbed by: Elkor
Email: elkor@nemesis.com.au

Tuning: Standard

INTRO:

|---5-------------------------------5---------------------------------|
|-6---6p5--6-5s3-3h5p3------------6---6-5-6-5-3--3h5p3----------------|
|---------------------5-5-2h3s5-----------------------5-3-2h3s5-5-----|
|---------------------------------------------------------------------|
|---------------------------------------------------------------------|
|---------------------------------------------------------------------|

SOLO:

|---------------------------------------------------------------------|
|----------------------13-13-13-13-13-13-13\--13----------------------|
|------------------------------------------------15-14-15-14h15-------|
|-3-3h5-5--3-5-7-7-7\-------------------------------------------------|
|---------------------------------------------------------------------|
|---------------------------------------------------------------------|


|---------------------------------------------------------------------|
|---------------------------------------------------------------------|
|-15-14-12h14p14---12-------------------------------------------------|
|---------------15----15-12----12-------------------------------------|
|---------------------------15----15-12-------------------8-10-10-----|
|---------------------------------------15-13-13---8h10p8-------------|


|---------------------------------------------------------------------|
|---------------------------------------13b-13b-13b-------------------|
|-----------------10-12b-12p10h12-12-10-------------------------------|
|-----------10-12-----------------------------------------------------|
|-8-----/12-----------------------------------------------------------|
|---10----------------------------------------------------------------|


|---------------------------------------------------------------------|
|----------------------10-13-10-13-10-13------------------------------|
|-10-10----10-10----10-------------------12b-12p10h12-12--10----------|
|-------12-------12------------------------------------------10-------|
|---------------------------------------------------------------------|
|---------------------------------------------------------------------|

				Bb
|-------------------------------1-------------------------------------|
|------10------8------10--------3-------------------------------------|
|-------------------------------3-------------------------------------|
|-8/10----10\8---8/10----10-----3-------------------------------------|
|-------------------------------1-------------------------------------|
|---------------------------------------------------------------------|
Tap to rate this tab
# A B C D E F G H I J K L M N O P Q R S T U V W X Y Z